Tabbed by Shamu
Drop D Tuning

Okay, I fixed it.

Intro
G|--8-5------------
D|----------5-5h6--
A|------5-5--------
D|-----------------

Verse
G|----------------------------------------]
D|----8~---8~----8~-------5~--5~--1~--1~--] These are the notes, not the melody! 
A|--6~---6~--5/6~---6~--3~--0~--0~----] Picking it out in the song is
D|----------------------------------------] really easy though...

Transition to Chorus
G|-------------------
D|-------------------
A|-------------------
D|--1-1-1-1-1-1-1-1--

Chorus
G|-----------------------------------
D|-----------------------------------
A|------------------1-1-1-1----------
D|--5-5-5-5-1-1-1-1---------3-3-3-3--

Outro
G|-----------------------------------
D|-----------------------------------
A|--1-1-1-1--------------------------
D|----------1-1-1-1-5-5-5-5-1-1-1-1--
Show more