Intro
=====
?
  B                               Bbm     Abm                           F#

E | 11-11-11-11-11-11-11-12-11------(b9)--(b9) | -11-11-11-11-11-11-11-12-11----6-6- | 
B | 12-12-12-12-12-12-12-12-12-12--11--11- | -12-12-12-12-12-12-12-12-12-12-7-7- | 
G | ---------------------------11--------- | ----------------------------11----- | 
D | -------------------------------------- | ----------------------------------- | 
A | -------------------------------------- | ----------------------------------- | 
E | -------------------------------------- | ----------------------------------- | 
?
  E                               Ebm     E               F#

E | 11-11-11-11-11-11-11-12-11------2---2- | --------------------------------- | 
B | 12-12-12-12-12-12-12-12-12-12---2---2- | -5---------------7--7------------ | 
G | ---------------------------11--------- | -6---------------6--6------------ | 
D | -------------------------------------- | --------------------------------- | 
A | -------------------------------------- | --------------------------------- | 
E | -------------------------------------- | --------------------------------- | 

Verse 1
=======
?
B?????????? Bbm?? Abm?????????????????? F#
Life's been quiet???? since you've been gone
?
E???????? Ebm? E???????????? F#
? It's no fun??? burning for one
?
B?????? Bbm?? Abm????????? F#
? I was happy?? before you came
?
E??????????? Ebm? E??????????????????? F#
? Now you're gone??? it's just not the same
?

Chorus 1
========
?
B??? Bbm????? Abm??????? F#???? E????????? Ebm
Lord knows as hard as it is, as hard as it is
?
E???????????? F#
They know how?? just how hard it is
?
B??? Bbm????? Abm??????? F#???? E????????? Ebm
Lord knows as hard as it is, as hard as it is
?
E??????? F#
He knows?? just how hard it is
?

Bridge
======
?
A????????????? E???? G?????????????????? D
? I missed you bad I want you now my, my darling
A??????????? E?? G????????????????? D
It drives me mad not now having you here
?

Inst (sax)
================
?
B Bbm Abm F# E Ebm E F#
B Bbm Abm F# E Ebm E F#
?

Chorus 2
========
?
B??? Bbm????? Abm??????? F#???? E????????? Ebm
Lord knows as hard as it is, as hard as it is
?
E???????????? F#
They know how?? just how hard it is
?
B??? Bbm????? Abm??????? F#???? E????????? Ebm
Lord knows as hard as it is, as hard as it is
?
E??????? F#
He knows?? just how hard it is
?

Chorus 3
========
?
B????? Bbm?????? Abm???? F#?????? E????????? Ebm
? Lord knows how hard it gets, as hard as it is
?
E????????????????????? F#
? He knows he knows he knows just how hard it is
?
B?????????? Bbm? Abm??????????? F#
? Yeah they do???? and he gives word
?
E????????????? Ebm??????? F#?????????????? F#????
? I know I know? I know I know how much it hurts
?

Chorus 4
========
?
B?? Bbm?? Abm???????????? F#????????
? I do??????? I been down too
?
E?????????????????????? Ebm? E????????? F#
??? I know how you must feel?? ain't it true
?

Fade
====
?
B Bbm Abm F# E Ebm E F#
Show more