• Song:

    My Carousel

  • Artist:

    Finger Eleven

  • Album:

    Greyest Of Blue Skies

Transcribed by: Simon C apacificwonderland@hotmail.com 
Tuning: C# (down half-step and drop D)  
 
 
Clean Verse 
------------------------ 
---4--------3--------4-- 
------4--------4-------- 
-2-------2--------2----- 
------------------------ 
------------------------ 
Spotlights are roaming?.. 
 
Distortion verse 
---------------------------- 
---------------------------- 
-----7-7-7-7--7-7-7--7------ 
-----4-4-4-4--4-4-4--4------ 
-----5-5-5-5--5-5-5--5------ 
--0----------0------0------- 
AWAY?I hope it ends before? 
 
Pre-chorus       
----------------- 
----------------- 
----------------- 
----------------- 
----------------- 
-2~--4~--5~------ 
I?d say im tired of this place? 
 
Wammy Pre Chorus  
----------------- 
----------------- 
----------------- 
-2---4---5-------Wammy Peddle Used 
----------------- 
----------------- 
 
Chorus 
------------------------- 
--------------3---------- 
--7---5---3---3---------- 
--7---5---3---3---3---2--   I haven?t put in the stumming patterns so  
--5---3---1-------3---2--  you will be able to figure it out easy! 
------------------3---2-- 
Riding my carousel, they can never tell 
 
 
1st Post Chorus 
------------------------------------- 
------------------------------------- 
-7-7-7-7-7-7-7-7--7-7-7-7-7-7-7-7---- 
-4-4-4-4-4-4-4-6--6-6-6-6-6-6-6-4---- 
-5-5-5-5-5-5-5-5?-5-5-5-5-5-5-5-5?--- 
------------------------------------- 
 
2nd Post-chorus  
------------------------------------- 
------------------------------------- 
-7-7-7-7-7-7-7-7---5----------------- 
-4-4-4-4-4-4-4-4---5----------------- 
-5-5-5-5-5-5-5-5---3----------------- 
------------------------------------- 
I'm spinning and turning, always revolving 
 
 
 
 
Bridge 
-10---------13-12---------13-- 
-----10-10--------10-10------- 
------------------------------   
------------------------------ 
------------------------------ 
Close all of the doors?.. 
 
 
Quiet Chorus  
------------------------- 
------------------------- 
--7---5---3-------------- 
--7---5---3---3---2------ 
--5---3---1---3---2------ 
--------------3---2------ 
Riding my carousel, they can never tell 
 
Clean Verse x 3 
Distortion verse x 2 
Clean Verse x 3  
Distortion verse x 2  
1st Pre Chorus  
Chorus x 2 
1st Post Chorus x2  
Clean Verse x 3  
Distortion verse x 2 
Clean Verse x 3  
Distortion verse x 2 
Wammy Pre Chorus 
Chorus  x 2  
2nd Post-chorus x 4 
Bridge  
2nd Post-chorus x 2  
Bridge 
2nd Post-chorus x 2  
Pre Chorus P.M.  
Quiet Chorus x 2 
Distortion verse (strum till the end)  
 
Okay I have been extremely thorough and yea I think its pretty well much right sorry its heaps confusing, but I wanted to get everything
Show more