• Song:

    Panic Attack

  • Artist:

    Finger Eleven

  • Album:

    Finger Eleven

Transcribed by: Greg Kong 
 
 
Tuning: Db1 AB Db Gb Bb Eb 
 
 
Pretty repetitive song, once you get down the basic verse/chorus 
parts then it's a breeze. 
 
There's a couple of variatons here and there, but nothing big.  
 
Intro: 
-|--------------------|-    -|---------------------|- 
-|--------------------|-    -|---------------------|- 
-|--44----44----44----|-    -|--44----44------4/5--|- 
-|--44-3--44-3--44-3--|- 3x -|--44-3--44-3--3-x-x--|- 
-|--22-3--22-3--22-3--|-    -|--22-3--22-3--3-2/3--|- 
-|-----3-----3-----3--|-    -|-----3-----3--3------|- 
                                            pm 
 
 
Verse: 
 
The first part of the verse sounds like it's played with a wah and 
I'm pretty sure he's hittin the harmonic for the 3rd fret on the 
6th string, but that could just be the wah again. 
 
-|----------------------|-    -|------------------------------|- 
-|----------------------|-    -|------------------------------|- 
-|--44-----44-----44----|-    -|--44-----44-----44-------4/5--|- 
-|--xx-----xx-----xx----|- 3x -|--xx-----xx-----xx-------x-x--|- 
-|--22-----22-----22----|-    -|--22-----22-----22-------2/3--|- 
-|-----3^-----3^-----3^-|-    -|-----3^-----3^-----3^--3------|- 
 
-|--------------------|-    -|---------------------|- 
-|--------------------|-    -|---------------------|- 
-|--44----44----44----|-    -|--44----44------4/5--|- 
-|--xx-3--xx-3--xx-3--|- 3x -|--xx-3--xx-3--3-x-x--|- 
-|--22-3--22-3--22-3--|-    -|--22-3--22-3--3-2/3--|- 
-|-----3-----3-----3--|-    -|-----3-----3--3------|- 
                                            pm 
 
 
Pre-Chorus: 
-|---------------------|- 
-|---------------------|- 
-|---------------------|- 
-|---------------------|- 6x 
-|---------------------|- 
-|--14
-14-14/15-12--|- 
 
-|----------------------------------------|- 
-|----------------------------------------|- 
-|---------------------10--12--14---------|- 
-|----------------------x---x---x------5--|- 
-|----------------------8--10--12--3h5----|- 
-|--14
-14-14/15-12---------------------|- 
 
 
 
Chorus 1: 
-|-------------------------x---------|- 
-|-------------------------6---------|- 
-|-------------------------5---------|- 
-|--00-000-000-000--0-3-3--3------5--|- 3x 
-|--00-000-000-000--0-3-3--3--3h5----|- 
-|--00-000-000-000--0-3-3--3---------|- 
 
-|-------------------------x-------x--|- 
-|-------------------------6-------6--|- 
-|-------------------------5-------5--|- 
-|--00-000-000-000--0-3-3--3--3-3--3--|- 
-|--00-000-000-000--0-3-3--3--3-3--3--|- 
-|--00-000-000-000--0-3-3--3--3-3--3--|- 
 
 
 
Verse: 
-|--------------------|-    -|---------------------|- 
-|--------------------|-    -|---------------------|- 
-|--44----44----44----|-    -|--44----44------4/5--|- 
-|--44-3--44-3--44-3--|- 3x -|--44-3--44-3--3-x-x--|- 
-|--22-3--22-3--22-3--|-    -|--22-3--22-3--3-2/3--|- 
-|-----3-----3-----3--|-    -|-----3-----3--3------|- 
                                            pm 
 
 
Pre-Chorus: 
-|---------------------|- 
-|---------------------|- 
-|---------------------|- 
-|---------------------|- 6x 
-|---------------------|- 
-|--14
-14-14/15-12--|- 
 
-|----------------------------------------|- 
-|----------------------------------------|- 
-|---------------------10--12--14---------|- 
-|----------------------x---x---x------5--|- 
-|----------------------8--10--12--3h5----|- 
-|--14
-14-14/15-12---------------------|- 
 
 
 
Chorus 2: 
 
Guitar 1 
-|-------------------------x---------|- 
-|-------------------------6---------|- 
-|-------------------------5---------|- 
-|--00-000-000-000--0-3-3--3------5--|- 2x 
-|--00-000-000-000--0-3-3--3--3h5----|- 
-|--00-000-000-000--0-3-3--3---------|- 
 
-|-----------------------------------------x---------|- 
-|-----------------------------------------6---------|- 
-|-----------------------------------------5---------|- 
-|--00-0-0/12-1212--00-0-0/12-1212--0-3-3--3------5--|- 
-|--00-0-0/12-1212--00-0-0/12-1212--0-3-3--3--3h5----|- 
-|--00-0-0/12-1212--00-0-0/12-1212--0-3-3--3---------|- 
 
-|-------------------------x-------x--|- 
-|-------------------------6-------6--|- 
-|-------------------------5-------5--|- 
-|--00-000-000-000--0-3-3--3--3-3--3--|- 
-|--00-000-000-000--0-3-3--3--3-3--3--|- 
-|--00-000-000-000--0-3-3--3--3-3--3--|- 
 
 
 
Pre-Chorus 
-|-------------------------------------|- 
-|-------------------------------------|- 
-|-------------------------------------|- 
-|-------------------------------------|- 5x 
-|-------------------------------------|- 
-|--14
-14-14/15-12--14
-14-14/15--|- 
 
-|----------------------------------------|- 
-|----------------------------------------|- 
-|---------------------10--12--14---------|- 
-|----------------------x---x---x------5--|- 
-|----------------------8--10--12--3h5----|- 
-|--14
-14-14/15-12---------------------|- 
 
 
 
 
Play "Chorus 2", and the "Intro" twice, then the song ends.
Show more