Tabbed by: seanrich944

Intro - fades in
e|------------------------------------------------------------|
B|------------------------------------------------------------|
G|/7----7---7----7---7----7---7----7--------------------------| \
D|-0----0---0----0---0----0---0----0--------------------------|  \
A|/8--8--8--8--8--8--8--8--8--8--8--8-------------------------|   \
D|/8--8--8--8--8--8--8--8--8--8--8--8-------------------------|    \
                                                                    \
e|------------------------------------------------------------|      \ 
B|------------------------------------------------------------|       \
G|-7----7---7----7---7----7---7----7--------------------------|        repeat
D|-0----0---0----0---0----0---0----0--------------------------|       /
A|(b9)-(b9)-(b9)-(b9)-(b9)-(b9)-(b9)-(b9)-(b9)-(b9)-(b9)-(b9)------------------------|      /
D|(b9)-(b9)-(b9)-(b9)-(b9)-(b9)-(b9)-(b9)-(b9)-(b9)-(b9)-(b9)------------------------|     /
                                                                   /
e|------------------------------------------------------------|   /
B|------------------------------------------------------------|  /
G|----2---2----2--------------------------------------------| /
D|-0----0---0----0--------------------------------------------|  
A|--3--3--3--3--3-------------------------------------------|
E|--3--3--3--3--3-------------------------------------------|

e|------------------------------------------------------------|
B|------------------------------------------------------------|
G|/4----4---4----4--------------------------------------------|
D|-0----0---0----0---0----0---0----0---0----0---0----0--------|
A|/5--5--5--5--5--5--5--5--5--5--5--5--5--5--5--5--5--5-------|
D|/5--5--5--5--5--5--0--0--0--0--0--0--0--0--0--0--0--0-------|


Verse
      and I don't know if you...      ...different...
e|--------------------------------------------------------------------------|
B|--------------------------------------------------------------------------|
G|--------------------------------------------------------------------------|
D|-0----0---0----0---0----0---0----0---0----0---0----0---0----0---0----0----|
A|-5--5--5--5--5--5--5--5--5--5--5--5--5--5--5--5--5--5--5--5--5--5--5--5---|
D|-0--0--0--0--0--0--0--0--0--0--0--0--5--5--5--5--5--5--5--5--5--5--5--5---|

      it's getting dark...
e|------------------------------------------------------------|
B|------------------------------------------------------------|
G|-7----7---7----7---7----7---7----7--------------------------|
D|-0----0---0----0---0----0---0----0--------------------------|
A|(b9)-(b9)-(b9)-(b9)-(b9)-(b9)-(b9)-(b9)-(b9)-(b9)-(b9)-(b9)------------------------|
D|(b9)-(b9)-(b9)-(b9)-(b9)-(b9)-(b9)-(b9)-(b9)-(b9)-(b9)-(b9)------------------------|

   nights are... long...
e|------------------------------------------------------------|
B|------------------------------------------------------------|
G|------------------------------------------------------------|
D|-0----0---0----0---0----0---0----0--------------------------|
A|--5--5--5--5--5-(b9)-(b9)-(b9)-(b9)-(b9)-(b9)------------------------|
D|--5--5--5--5--5--0--0--0--0--0--0-------------------------|

      and i don't know...              ...at all...       ...that i'm...
e|------------------------------------------------------------------------|
B|------------------------------------------------------------------------|
G|------------------------------------------------------------------------|
D|-0----0---0----0---0----0---0----0---0----0---0----0---0----0---0----0--|
A|-(b9)-(b9)-(b9)-(b9)-(b9)-(b9)-(b9)-(b9)-(b9)-(b9)-(b9)-(b9)--5--5--5--5--5--5--5--5--5--5--5-|
D|-0--0--0--0--0--0--0--0--0--0--0--0---5--5--5--5--5--5--5--5--5--5--5-|

         ...long gone
e|------------------------------------------------------------------------|
B|------------------------------------------------------------------------|
G|-7----7---7----7---7----7---7----7--------------------------------------|
D|-0----0---0----0---0----0---0----0---0----0---0----0---0----0---0----0--|
A|(b9)-(b9)-(b9)-(b9)-(b9)-(b9)-(b9)-(b9)-(b9)-(b9)-(b9)-(b9)--5--5--5--5--5-(b9)-(b9)-(b9)-(b9)-(b9)-(b9)|
D|(b9)-(b9)-(b9)-(b9)-(b9)-(b9)-(b9)-(b9)-(b9)-(b9)-(b9)-(b9)--5--5--5--5--5--0--0--0--0--0--0-|

Pre-chorus
                ...and the things  ...apart        ...alive
e|------------------------------------------------------------------------|
B|------------------------------------------------------------------------|
G|-7----7---7----7---7----7---7----7--------------------------------------|
D|-0----0---0----0---0----0---0----0---0----0---0----0---0----0---0----0--|
A|-(b9)-(b9)-(b9)-(b9)-(b9)-(b9)-(b9)-(b9)-(b9)-(b9)-(b9)-(b9)--5--5--5--5--5-(b9)-(b9)-(b9)-(b9)-(b9)-(b9)|
D|-(b9)-(b9)-(b9)-(b9)-(b9)-(b9)-(b9)-(b9)-(b9)-(b9)-(b9)-(b9)--5--5--5--5--5--0--0--0--0--0--0-|

                ...and the things  ...alive        ...alone
e|------------------------------------------------------------------------|
B|------------------------------------------------------------------------|
G|-7----7---7----7---7----7---7----7--------------------------------------|
D|-0----0---0----0---0----0---0----0---0----0---0----0--------------------|
A|-(b9)-(b9)-(b9)-(b9)-(b9)-(b9)-(b9)-(b9)-(b9)-(b9)-(b9)-(b9)--5--5--5--5--5-------------------|
D|-(b9)-(b9)-(b9)-(b9)-(b9)-(b9)-(b9)-(b9)-(b9)-(b9)-(b9)-(b9)--5--5--5--5--5-------------------|

Chorus

e|------------------------------------------------------------|
B|------------------------------------------------------------|
G|-2----2---2----2---7----7---7----7------2---2----2--------|
D|-0----0---0----0---0----0---0----0---0----0---0----0--------|
A|-0--0--0--0--0--0--(b9)-(b9)-(b9)-(b9)-(b9)-(b9)--3--3--3--3--3-------|
D|-0--0--0--0--0--0--(b9)-(b9)-(b9)-(b9)-(b9)-(b9)--3--3--3--3--3-------|

e|------------------------------------------------------------|
B|------------------------------------------------------------|
G|/7----7---7----7---7----7---7----7---7----7---7----7--------|
D|-0----0---0----0---0----0---0----0---0----0---0----0--------|
A|/8--8--8--8--8--8-(b9)-(b9)-(b9)-(b9)-(b9)-(b9)-(b9)-(b9)-(b9)-(b9)-(b9)-(b9)------|
D|/8--8--8--8--8--8-(b9)-(b9)-(b9)-(b9)-(b9)-(b9)-(b9)-(b9)-(b9)-(b9)-(b9)-(b9)------|

e|------------------------------------------------------------|
B|------------------------------------------------------------|
G|----2---2----2--/7----7---7----7--------------------------|
D|-0----0---0----0---0----0---0----0--------------------------|
A|--3--3--3--3--3-/8--8--8--8--8--8-------------------------|
E|--3--3--3--3--3-/8--8--8--8--8--8-------------------------|

e|------------------------------------------------------------|
B|------------------------------------------------------------|
G|-7----7---7----7---7----7---7----7------2---2----2--------|
D|-0----0---0----0---0----0---0----0---0----0---0----0--------|
A|(b9)-(b9)-(b9)-(b9)-(b9)-(b9)-(b9)-(b9)-(b9)-(b9)-(b9)-(b9)--3--3--3--3--3-------|
D|(b9)-(b9)-(b9)-(b9)-(b9)-(b9)-(b9)-(b9)-(b9)-(b9)-(b9)-(b9)--3--3--3--3--3-------|

e|------------------------------------------------------------|
B|------------------------------------------------------------|
G|/4----4---4----4--------------------------------------------|
D|-0----0---0----0---0----0---0----0---0----0---0----0--------|
A|/5--5--5--5--5--5--5--5--5--5--5--5--5--5--5--5--5--5-------|
D|/5--5--5--5--5--5--0--0--0--0--0--0--0--0--0--0--0--0-------|

Verse

Pre-Chorus

Chorus

e|------------------------------------------------------------|
B|------------------------------------------------------------|
G|-2----2---2----2---2----2---2----2--------------------------|
D|-0----0---0----0---5----5---5----5--------------------------|
A|-0--0--0--0--0--0--0--0--0--0--0--0-------------------------|
D|-0--0--0--0--0--0--0--0--0--0--0--0-------------------------|

e|------------------------------------------------------------|
B|------------------------------------------------------------|
G|-------------------7----7---7----7------2---2----2--------|
D|-0----0---0----0---0----0---0----0---0----0---0----0--------|
A|-5--5--5--5--5--5--(b9)-(b9)-(b9)-(b9)-(b9)-(b9)--3--3--3--3--3-------|
D|-0--0--0--0--0--0--(b9)-(b9)-(b9)-(b9)-(b9)-(b9)--3--3--3--3--3-------|

e|------------------------------------------------------------|
B|------------------------------------------------------------|
G|/7----7---7----7---7----7---7----7---7----7---7----7--------|
D|-0----0---0----0---0----0---0----0---0----0---0----0--------|
A|/8--8--8--8--8--8-(b9)-(b9)-(b9)-(b9)-(b9)-(b9)-(b9)-(b9)-(b9)-(b9)-(b9)-(b9)------|
D|/8--8--8--8--8--8-(b9)-(b9)-(b9)-(b9)-(b9)-(b9)-(b9)-(b9)-(b9)-(b9)-(b9)-(b9)------|

e|------------------------------------------------------------|
B|------------------------------------------------------------|
G|----2---2----2--/7----7---7----7--------------------------|
D|-0----0---0----0---0----0---0----0--------------------------|
A|--3--3--3--3--3-/8--8--8--8--8--8-------------------------|
E|--3--3--3--3--3-/8--8--8--8--8--8-------------------------|

e|------------------------------------------------------------|
B|------------------------------------------------------------|
G|-7----7---7----7---7----7---7----7------2---2----2--------|
D|-0----0---0----0---0----0---0----0---0----0---0----0--------|
A|(b9)-(b9)-(b9)-(b9)-(b9)-(b9)-(b9)-(b9)-(b9)-(b9)-(b9)-(b9)--3--3--3--3--3-------|
D|(b9)-(b9)-(b9)-(b9)-(b9)-(b9)-(b9)-(b9)-(b9)-(b9)-(b9)-(b9)--3--3--3--3--3-------|

e|------------------------------------------------------------|
B|------------------------------------------------------------|
G|/4----4---4----4--------------------------------------------|
D|-0----0---0----0---0----0---0----0---0----0---0----0--------|
A|/5--5--5--5--5--5--5--5--5--5--5--5--5--5--5--5--5--5-------|
D|/5--5--5--5--5--5--0--0--0--0--0--0--0--0--0--0--0--0-------|

Outro
e|------------------------------------------------------------------------|
B|------------------------------------------------------------------------|
G|------------------------------------------------------------------------|
D|-0----0---0----0---0----0---0----0---0----0---3----3---3----3---3----3--|
A|-5--5--5--5--5--5--5--5--5--5--5--5--5--5--5--5--5--5--5--5--5--5--5--5-|
D|-0--0--0--0--0--0--0--0--0--0--0--0--0--0--0--0--0--0--0--0--0--0--0--0-|

                                          ...and i don't know
e|------------------------------------------------------------------------|
B|------------------------------------------------------------------------|
G|-------------------2----2---2----2--------------------------------------|
D|-5----5---5----5---5----5---5----5---0----0---0----0---0----0---0----0--|
A|-5--5--5--5--5--5--5--5--5--5--5--5--8--8--8--8--8--8--8--8--8--8--8--8-|
D|-0--0--0--0--0--0--0--0--0--0--0--0--8--8--8--8--8--8--8--8--8--8--8--8-|

  notice...                     ...different
e|------------------------------------------------------------------------|
B|------------------------------------------------------------------------|
G|------------------------------------------------------------------------|
D|-0----0---0----0---5----5---7----7---3----3---3----3---3----3---3----3--|
A|-7--7--7--7--7--7--7--7--7--7--7--7--5--5--5--5--5--5--5--5--5--5--5--5-|
D|-7--7--7--7--7--7--7--7--7--7--7--7--0--0--0--0--0--0--0--0--0--0--0--0-|

                                          ...and i don't know
e|------------------------------------------------------------------------|
B|------------------------------------------------------------------------|
G|------------------------------------------------------------------------|
D|-3----3---3----3---3----3---0----0---0----0---0----0---0----0---0----0--|
A|-5--5--5--5--5--5--5--5--5--5--5--5--8--8--8--8--8--8--8--8--8--8--8--8-|
D|-0--0--0--0--0--0--0--0--0--0--0--0--8--8--8--8--8--8--8--8--8--8--8--8-|

  notice...                         ...at all...
e|------------------------------------------------------------------------|
B|------------------------------------------------------------------------|
G|------------------------------------------------------------------------|
D|-0----0---0----0---0----0---5--------5----5---5----5---5----5---5----5--|
A|-7--7--7--7--7--7--7--7--7--7--7--7--5--5--5--5--5--5--5--5--5--5--5--5-|
D|-7--7--7--7--7--7--7--7--7--7--7--7--0--0--0--0--0--0--0--0--0--0--0--0-|

                                             ...and i don't know
e|------------------------------------------------------------------------|
B|------------------------------------------------------------------------|
G|------------------------------------------------------------------------|
D|-5----5---5----0---0----0---0----0---0----0---0----0---0----0---0----0--|
A|-5--5--5--5--5--5--5--5--5--5--5--5--8--8--8--8--8--8--8--8--8--8--8--8-|
D|-0--0--0--0--0--0--0--0--0--0--0--0--8--8--8--8--8--8--8--8--8--8--8--8-|

  notice...                          ...missing...
e|------------------------------------------------------------------------|
B|------------------------------------------------------------------------|
G|-------------------------------------4----4---4----4---4----4---4----4--|
D|-0----0---0----0---0----0---0----0---0----0---0----0---0----0---0----0--|
A|-7--7--7--7--7--7--7--7--7--7--7--7--5--5--5--5--5--5--5--5--5--5--5--5-|
D|-7--7--7--7--7--7--7--7--7--7--7--7--0--0--0--0--0--0--0--0--0--0--0--0-|

e|------------------------------------------------------------------------|
B|------------------------------------------------------------------------|
G|-0----0---0----0---0----0---0----0--------------------------------------|
D|-0----0---0----0---0----0---0----0--------------------------------------|
A|-5--5--5--5--5--5--5--5--5--5--5--5-------------------------------------|
D|-0--0--0--0--0--0--0--0--0--0--0--0-------------------------------------|

e|----------------------------------------|
B|----------------------------------------|
G|-0----0---0----0---0----0---0----0---0--|    X4
D|-0----0---0----0---0----0---0----0---0--|
A|-5--5--5--5--5--5--5--5--5--5--5--0--0--|
D|-0--0--0--0--0--0--0--0--0--0--0--3--5p0| 

e|----------------------------------------|
B|----------------------------------------|
G|-0----0---0----0---0----0---0----0---0--|    X4
D|-0----0---0----0---3b---0---0----0---0--|
A|-5--5--5--5--5--5--5--0--3--5--0--0--0--|
D|-0--0--0--0--0--0--0--0--0--0--0--3--5p0|   

e|----------------------------------------|
B|----------------------------------------|
G|-0----0---0----0---0----0---0----0---0--|    
D|-0----0---0----0---0----0---0----0---0--|
A|-0--0--0--0--0--0--0--0--0--0--0--0--0--|
D|-0--0--3--5--0--3--5--0--3--5--0--3--5--| 

e|-----------------------------------------|
B|-----------------------------------------|
G|-0----0---0----0---0----0---0----0---0---|    
D|-0----0---0----0---0----0---0----0---0---|
A|-0--0--0--0--0--0--0--0--0--0--0--0--9H--|
D|-0--0--3--5--0--3--5--0--3--5--0--3--9H--|
Show more