Intro 

A5 / E5 / F#5 / D5    X 7 

A5 / B5 / D5 

A5                    F#5
Cerco un'alternativa che 
   E5
dia una scossa alla mia normalit? 
A5               B5
L'abitudine mi soffoca 
D5
non ce la faccio pi?...... 

INTRO X 2


A5               F#5
Mai nessuno capir? 
        E5
questa ? una emergenza 
A5                 B5
Ho bisogno di una scarica 
   D5     E5
da 9000 watt..... 
A5  F#5    E5
E va,wooooooooooo...... 
                             A5  F#5 E5 
La mia testa se ne v?........wooooooooooo 
       A5
Io non riesco a capire.... 

quello che mi succede.... 
         D5
sento il cuore che batte, 

sento il cuore che batte...... 
       F#5
Soffro di dipendenza 
       E5
da una strana sostanza.... 
       D5
io non posso star senza... 

la mia dose di adrenalina 

VERSE 2 

e | ----------------- | 
B | ---10--9p10------ | 
G | ----------------- |          p = pull off
D | ----------------- | 
A | ----------------- | 
E | ----------------- | 

Prima o poi so' che impazzir? 
perch? ne voglio sempre,sempre di pi? 
Sono fatto per 

B5                 D5             E5
rischiare per non accontentarmi mai....... 
  A5 F#5    E5
E va, wooooooooooo...... 
                      A5 F#5       E5
La mia testa se ne v?........woooooooooo 
                     A5     B5    D5
La mia testa se ne v??????????


       A5
Io non riesco a capire.... 

quello che mi succede.... 
         D5
sento il cuore che batte, 

sento il cuore che batte...... 
       F#5
Soffro di dipendenza 
       E5
da una strana sostanza.... 
       D5
io non posso star senza... 

la mia dose di adrenalina 

BRIDGE
e | ------------------------------------------------------- | 
B | ------------------------------------------------------- | 
G | ---14-x-x-14-x-x-14-x-x-14-x-x-14-x-x-14-x-x-7-x-x-7--- | 
D | ---x--x-x-x--x-x-x--x-x-x--x-x-x--x-x-x--x-x-x-x-x-x--- | 
A | ---12-x-x-12-x-x-12-x-x-12-x-x-12-x-x-12-x-x-(b9)x-x-(b9)-- | 
E | ------------------------------------------------------- | 

e | ------------------------------------------------------- | 
B | ------------------------------------------------------- | 
G | ---14-x-x-14-x-x-14-x-x-14-x-x-14-x-x-14-x-x-7--------- | 
D | ---x--x-x-x--x-x-x--x-x-x--x-x-x--x-x-x--x-x-x--------- | 
A | ---12-x-x-12-x-x-12-x-x-12-x-x-12-x-x-12-x-x-(b9)-------- | 
E | ------------------------------------------------------- | 

one,two,three,four..... 

INTRO

A5 / E5 / F#5 / D5   

A5 / B5 / D5      / E5    

       A5
Io non riesco a capire.... 

quello che mi succede.... 
         D5
sento il cuore che batte, 

sento il cuore che batte...... 
       F#5
Soffro di dipendenza 
       E5
da una strana sostanza.... 
       D5
io non posso star senza... 
                         A5
la mia dose di adrenalina
Show more