Someone requested tabs for this song on my youtube channel so I'm posting them here.
Not a difficult song, but there are alot of details.
Standard tuning 

Check out my bass cover of this song!

http://www.youtube.com/watch?v=rzHZ0EFfLAY

Check out my channel for more covers!

http://www.youtube.com/user/chrisistheazn


Intro/Riff

Bass comes in at 0:23

G|------------------------------------------------------------------------|
D|------------------------------------------------------------------------|
A|-5-7-5-7-5-7-5-7-5-7-----5-7-----5-7-5-7-5-7-5-7-5-7-----5-7------------| x2
E|---------------------0-------0-----------------------0-------0----------|

Verse 1

Bass comes in at 0:36

G|------------------------------------------------------------------------|
D|------------------------------------------------------------------------|
A|---------------------------------3-3-3-3-----------------5-5-5-5--------| x2
E|----------------------------12\----------3-3-3-3-5-5-5-5----------------|

G|------------------------------------------------------------------------|
D|------------------------------------------------------------------------|
A|-7-7---7-6-6---6-5-5---5-4-4---4-3-3---3-----------------5-5---5--------|
E|-----------------------------------------3-3---3-5-5---5----------------|

G|------------------------------------------------------------------------|
D|------------------------------------------------------------------------|
A|-7-7---7-6-6---6-5-5---5-4-4---4-3-3---3-----------------5--------------|
E|-----------------------------------------3-3---3-5-5---5-----12\--------|

G|------------------------------------------------------------------------|
D|------------------------------------------------------------------------|
A|-7-7---7-6-6---6-5-5---5-4-4---4-3-3---3-----------------5-5---5--------|
E|-----------------------------------------3-3---3-5-5---5----------------|

G|------------------------------------------------------------------------|
D|------------------------------------------------------------------------|
A|-7-7---7-6-6---6-5-5---5-4-4---4-3-3---3-----------------5--------------|
E|-----------------------------------------3-3---3-5-5---5-----12\--------|

G|------------------------------------------------------------------------|
D|------------------------------------------------------------------------|
A|-7-7---7-6-6---6-5-5---5-4-4---4-3-3---3-----------------5-5---5--------|
E|-----------------------------------------3-3---3-5-5---5----------------|

G|------------------------------------------------------------------------|
D|------------------------------------------------------------------------|
A|-7-7---7-6-6---6-5-5---5-4-4---4-3-3---3-----------------5--------------|
E|-----------------------------------------3-3---3-5-5---5-----12\--------|

G|------------------------------------------------------------------------|
D|------------------------------------------------------------------------|
A|-7-7-7-7-6-6-6-6-5-5-5-5-4-4-4-4-3-3-3-3-----------------5-5-5-5--------| 
E|-----------------------------------------3-3-3-3-5-5-5-5----------------|

G|------------------------------------------------------------------------|
D|------------------------------------------------------------------------|
A|-7-7-7-7-6-6-6-6-5-5-5-5-4-4-4-4-3-3-3-3-----------------5-5------------| 
E|-----------------------------------------3-3-3-3-5-5-5-5-----0-0--------|

Pre-Chorus 1

G|------------------------------------------------------------------------|
D|------------------------------------------------------------------------|
A|-3-3-3-3-3-3-3-3-3-3-3-3-3-5-3-0---0-0-0-0-0-0-0-0-0-0-0-0-0-3----------|
E|------------------------------------------------------------------------|

G|------------------------------------------------------------------------|
D|------------------------------------------------------------------------|
A|---3-3-3-3-3-3-3-3-3-3-3-3-3-0-5---5-5-5-5-5-5-6-6-6-6-6-6-6-6----------|
E|------------------------------------------------------------------------|

Chorus 1

G|------------------------------------------------------------------------|
D|------------------------------------------------------------------------|
A|-7-7-7-7-7-7-7-7-7-7-7-7-7-7-5-5-5-5-5-5-5-5-5-5-5-5-5-5-5-5-5-5--------|
E|------------------------------------------------------------------------|

G|------------------------------------------------------------------------|
D|------------------------------------------------------------------------|
A|-3-3-3---3/----------------------3-3-3---3/-----------------------------|
E|-------3-----0-0-0-0-0-0-0-0-0-0-------3-----0-0-0-0-0-0-0-0-0-0--------|

G|------------------------------------------------------------------------|
D|------------------------------------------------------------------------|
A|-7-7-7-7-7-7-7-7-7-7-7-7-7-7-5-5-5-5-5-5-5-5-5-5-5-5-5-5-5-5-5-5--------|
E|------------------------------------------------------------------------|

G|------------------------------------------------------------------------|
D|------------------------------------------------------------------------|
A|-3-3-3---3/----------------------3-3-3---3/-----------------------------|
E|-------3-----0-0-0-0-0-0-0-0-0-0-------3-----0-0-0-0-0-0-0-0-0-0--------|

G|------------------------------------------------------------------------|
D|------------------------------------------------------------------------|
A|-3-3-3-3-3/----------------------5-5-5-5-5-5-5-5-5-5-5-5-5-5-6----------|
E|-------------0-0-0-0-0-0-0-0-0-0----------------------------------------|

After-Chorus/Riff

G|------------------------------------------------------------------------|
D|------------------------------------------------------------------------|
A|------------------------------------------------------------------------|
E|---------------------12\-----12\---------------------12\-----12\--------|

Verse 2

G|------------------------------------------------------------------------|
D|------------------------------------------------------------------------|
A|-7-7---7-6-6---6-5-5---5-4-4---4-3-3---3-----------------5-5---5--------|
E|-----------------------------------------3-3---3-5-5---5----------------|

G|------------------------------------------------------------------------|
D|------------------------------------------------------------------------|
A|-7-7---7-6-6---6-5-5---5-4-4---4-3-3---3-----------------5--------------|
E|-----------------------------------------3-3---3-5-5---5-----12\--------|

G|------------------------------------------------------------------------|
D|------------------------------------------------------------------------|
A|-7--7-7---6-6-6---5-5-5---4-4---3--3-3-------------------5-5------------|
E|-----------------------------------------3-3-3---5-5-5------------------|

G|------------------------------------------------------------------------|
D|------------------------------------------------------------------------|
A|-7--7-7---6-6-6---5-5-5---4-4---3--3-3---10-10-10---12-12-12---5-5-5-5--|
E|------------------------------------------------------------------------|

Pre-Chorus 2

G|------------------------------------------------------------------------|
D|------------------------------------------------------------------------|
A|-3-3-3-3-3-3-3-3-3-3-3-3-3-3-3-0-0-0-0-0-0-0-0-0-0-0-0-0-0-0-0-3--------|
E|------------------------------------------------------------------------|

G|------------------------------------------------------------------------|
D|------------------------------------------------------------------------|
A|-3-3-3-3-3-3-3-3-3-3-3-3-3-3-3-5-5-5-5-5-5-5-5-5-6-6-6-6-6-6-6-6--------|
E|------------------------------------------------------------------------|

Chorus 2

G|------------------------------------------------------------------------|
D|------------------------------------------------------------------------|
A|-7-7-7-7-7-7-7-7-7-7-7-7-7-7-5-5-5-5-5-5-5-5-5-5-5-5-5-5-5-5-5-5--------|
E|------------------------------------------------------------------------|

G|------------------------------------------------------------------------|
D|------------------------------------------------------------------------|
A|-3-3-3---3/----------------------3-3-3---3/-----------------------------|
E|-------3-----0-0-0-0-0-0-0-0-0-0-------3-----0-0-0-0-0-0-0-0-0-0--------|

G|------------------------------------------------------------------------|
D|------------------------------------------------------------------------|
A|-7-7-7-7-7-7-7-7-7-7-7-7-7-7-5-5-5-5-5-5-5-5-5-5-5-5-5-5-5-5-5-5--------|
E|------------------------------------------------------------------------|

G|------------------------------------------------------------------------|
D|------------------------------------------------------------------------|
A|-3-3-3---3/----------------------3-3-3---3/-----------------------------|
E|-------3-----0-0-0-0-0-0-0-0-0-0-------3-----0-0-0-0-0-0-0-0-0-0--------|

G|------------------------------------------------------------------------|
D|------------------------------------------------------------------------|
A|-3-3-3-3-3/----------------------5-5-5-5-5-5-5-5-5---5---5---6----------|
E|-------------0-0-0-0-0-0-0-0-0-0-------------------0---0---0------------|

Bridge

G|------------------------------------------------------------------------|
D|------------------------------------------------------------------------|
A|------------------------------------------------------------------------|
E|-0-0-0-0-0-0-0-0-0-0-0-0-0-0-0-0-2-2-2-2-2-2-2-2-2-2-2-2-2-2-2-2--------|

G|------------------------------------------------------------------------|
D|------------------------------------------------------------------------|
A|-3-3-3-3-3-3-3-3-3-3-3-3-3-3-3-3-5-5-5-5-5-5-5-5-6-6-6-6-6-6-6-6--------|
E|------------------------------------------------------------------------|

G|------------------------------------------------------------------------|
D|------------------------------------------------------------------------|
A|-7-7-7-7-7-7-7-7-7-7-7-7-7-7-7-7-9-9-9-9-9-9-9-9-9-9-9-9-9-9-9-9--------|
E|------------------------------------------------------------------------|

G|------------------------------------------------------------------------|
D|------------------------------------------------------------------------|
A|-3-3-3-3-3-3-3-3-3-3-3-3-3-3-3-3-5-5-5-5-5-5-5-5-6---6---6---6----------|
E|---------------------------------------------------0---0---0------------|

Riff

G|------------------------------------------------------------------------|
D|------------------------------------------------------------------------|
A|------------------------------------------------------------------------|
E|---------------------12\-----12\----------------------------------------|

Chorus 3

G|------------------------------------------------------------------------|
D|------------------------------------------------------------------------|
A|-7-7-7-7-7-7-7-7-7-7-7-7-7-7-5-5-5-5-5-5-5-5-5-5-5-5-5-5-5-5-5-5--------|
E|------------------------------------------------------------------------|

G|------------------------------------------------------------------------|
D|------------------------------------------------------------------------|
A|-3-3-3---3/----------------------3-3-3---3/-----------------------------|
E|-------3-----0-0-0-0-0-0-0-0-0-0-------3-----0-0-0-0-0-0-0-0-0-0--------|

G|------------------------------------------------------------------------|
D|------------------------------------------------------------------------|
A|-7-7-7-7-7-7-7-7-7-7-7-7-7-7-5-5-5-5-5-5-5-5-5-5-5-5-5-5-5-5-5-5--------|
E|------------------------------------------------------------------------|

G|------------------------------------------------------------------------|
D|------------------------------------------------------------------------|
A|-3-3-3---3/----------------------3-3-3---3/-----------------------------|
E|-------3-----0-0-0-0-0-0-0-0-0-0-------3-----0-0-0-0-0-0-0-0-0-0--------|

G|------------------------------------------------------------------------|
D|------------------------------------------------------------------------|
A|-5-7-5-7-5-7-5-7-5-7-----5-7-----5-7-5-7-5-7-5-7-5-7-----5-7------------|
E|---------------------0-------0-----------------------0-------0----------|

G|------------------------------------------------------------------------|
D|------------------------------------------------------------------------|
A|-5-7-5-7-5-7-----5-7-5-7-5-7-5-7-5-7-5-7-5-7-----5-7-5-7-5-7-5-7--------|
E|-------------0-------------------------------0--------------------------|

G|------------------------------------------------------------------------|
D|------------------------------------------------------------------------|
A|-5-7-5-7-5-7-5-7-5-7-----5-7-----5-7-5-7-5-7-5-7-5-7-----5-7------------|
E|---------------------0-------0-----------------------0-------0----------|

G|------------------------------------------------------------------------|
D|------------------------------------------------------------------------|
A|-3-3-3---3/----------------------3-3-3---3/-----------------------------|
E|-------3-----0-0-0-0-0-0-0-0-0-0-------3-----0-0-0-0-0-0-0-0-0-0--------|

G|------------------------------------------------------------------------|
D|------------------------------------------------------------------------|
A|-3---3---------------------------5-5-5-5-5-5-5---5---5---5---6----------|
E|-------------0-0-0-0-0-0-0-0-0-0---------------0---0---0---0------------|

Outro/Riff

G|------------------------------------------------------------------------|
D|------------------------------------------------------------------------|
A|-5-7-5-7-5-7-5-7-5-7-----5-7-----5-7-5-7-5-7-5-7-5-7-----5-7------------|
E|---------------------0-------0-----------------------0-------0----------|

G|------------------------------------------------------------------------|
D|------------------------------------------------------------------------|
A|-5-7-5-7-5-7-5-7-5-7-5-7-5-7-5-7-5-7-5-7-5-7-5-7-5-7-----5-7------------|
E|-----------------------------------------------------0-------0----------|


| /  slide up
| \  slide down
| h  hammer-on
| p  pull-off
| ~  vibrato
| +  harmonic
| x  Mute note
Show more