Song: The Deepest Blues Are Black
Artist: Foo Fighters
Album: In Your Honor

Standard Tuning - listen to the song for exact strum patterns

Intro
e|--8---------------|
B|--6---------------|
G|--0---x16---------|
D|--7---------------|
A|--8---------------|
E|------------------|

Verse 1 Guitar 1

Shame on you.. Seducing everyone..  You faded jewel..
e|-8-----------11-----------------------8--------|
B|-6------------9-----------------------6--------|
G|-0------------0-----------------------0--------|
D|-7-----------10-----------------------7--------|
A|-8-----------11-----------------------8--------|
E|-----------------------------------------------|

You diamond in the rough..   You don't have to tell me..
e|--11-----------------------13------------------|
B|---9-----------------------11------------------|
G|---0------------------------0------------------|
D|--10-----------------------12------------------|
A|--11-----------------------13------------------|
E|-----------------------------------------------|

I know where you've been.. Shinin once a-
e|-8-----------------------11------------------|
B|-6------------------------9------------------|
G|-0------------------------0------------------|
D|-7-----------------------10------------------|
A|-8-----------------------11------------------|
E|---------------------------------------------|
  
  -gain
Guitar 1:
e|--8---------------|
B|--6---------------|
G|--0---------------|
D|--7---------------|
A|--8---------------|
E|------------------|
Guitar 2:
e|--------------------------------------------|
B|--------------------------------------------|
G|--------------------------------------------|
D|--------------------------------------------|
A|-3---3---3-3---3---3-3---3---3-3---3---3----|
E|-1p0-1p0-1-1p0-1p0-1-1p0-1p0-1-1p0-1p0-1----|


Verse 2 (w/ Verse 1 Guitar 1):

   Will you do.. the thing you've always done.. 
e|-------------------------------------------|
B|-------------------------------------------|
G|-0~----------------0~----------------------|
D|-3~----------------5~----------------------|
A|-3~----------------6~----------------------|
E|-------------------------------------------|

   Tell me true.. I think you know the one
e|-------------------------------------------|
B|-------------------------------------------|
G|-0~---------------0~-----------------------|
D|-3~---------------5~-----------------------|
A|-3~---------------6~-----------------------|
E|-------------------------------------------|

   One that makes me blurry.. colors start to run
e|-------------------------------------------|
B|-------------------------------------------|
G|-0~-------------------------0~-------------|
D|-5~-------------------------3~-------------|
A|-5~-------------------------3~-------------|
E|-------------------------------------------|


Pre-Chorus:

Every time I      Won-                der
e|-----------------------------------------------------------|
B|-----------------------------------------------------------|
G|-0~--------------------------------------------------------|
D|-5~--------------------------------------------------------|
A|-6~-------------3---3---3-3---3---3-3---3---3-3---3---3----|
E|----------------1p0-1p0-1-1p0-1p0-1-1p0-1p0-1-1p0-1p0-1----|

  I.. go.. under
e|--------------------------------------------|
B|--------------------------------------------|
G|--------------------------------------------|
D|--------------------------------------------|
A|-3---3---3-3---3---3-3---3---3-3---3---3----|
E|-1p0-1p0-1-1p0-1p0-1-1p0-1p0-1-1p0-1p0-1----|

Chorus:

The deeper the blues the more I see bla-    ack
e|--------------------------------------------------|
B|--------------------------------------------------|
G|----------------------------------3-------2-------|
D|--3--------------------2----------3-------3-------|
A|--3--------------------3----------1-------0-------|
E|--1--------------------0--------------------------|

The sweeter the bruise the feelin starts coming ba-    ack
e|--------------------------------------------------------------|
B|--------------------------------------------------------------|
G|----------------------------------------------3-------2-------|
D|--3----------------------2--------------------3-------3-------|
A|--3----------------------3--------------------1-------0-------|
E|--1----------------------0------------------------------------|

All the deepest blues are black
Guitar 1:
e|------3--------------------1---------------------|
B|------3--------------------2---------------------|
G|------4--------------------3---------------------|
D|------5--------------------3---------------------|
A|------5--------------------1---------------------|
E|------3------------------------------------------|
Guitar 2:
e|-------------------------------------------|
B|-------------------------------------------|
G|------7----------------10--6--5--3---------|
D|------x-----------------x--x--x--x---------|
A|------5-----------------8--4--3--1---------|
E|-------------------------------------------|

Verse 3 (with Guitar 1 & 2 from Verse 1 & 2):

   How my mind is spinnin' and my head is goin' numb
e|----------------8----------------------------------11---|
B|------------------6----------------------------------9--|
G|-0------------------0------------0--------------------0-|
D|-7-------------7----------------10--------------10------|
A|-8-----------8------------------11------------11--------|
E|--------------------------------------------------------|

  Right from the beginning and our ending has begun  
e|--------------------8-----------------------------11---|
B|----------------------6-----------------------------9--|
G|-0----------------------0----------0-----------------0-|
D|-7-----------------7--------------10-----------10------|
A|-8---------------8----------------11---------11--------|
E|-------------------------------------------------------|

   I can be your trouble,      shiver into you
e|------------------13-----------------------8----------|
B|--------------------11----------------------6---------|
G|-0--------------------0------0----------------0-------|
D|-12-------------12-----------7-----------7------------|
A|-13-----------13-------------8----------8-------------|
E|------------------------------------------------------|

   Shakin' like the
e|-11----------11-------|
B|--9------------9------|
G|--0-------------0-----|
D|-10--------10---------|
A|-11------11-----------|
E|----------------------|

Pre-Chorus

Guitar 1:

Thun-                der         Sinkin         under
e|-8-8---------------8-8---------8-8------------8-8---------|
B|-6-6---------------6-6---------6-6------------6-6---------|
G|-0-0---------------0-0---------0-0------------0-0---------|
D|-7-7---------------7-7---------7-7------------7-7---------|
A|-8-8---------------8-8---------8-8------------8-8---------|
E|----------------------------------------------------------|

Guitar 2:
e|--------------------------------------------|
B|--------------------------------------------|
G|--------------------------------------------|
D|--------------------------------------------|   x2
A|-3---3---3-3---3---3-3---3---3-3---3---3----|
E|-1p0-1p0-1-1p0-1p0-1-1p0-1p0-1-1p0-1p0-1----|

Chorus:

The deeper the blues the more I see bla-    ack
e|--------------------------------------------------|
B|--------------------------------------------------|
G|----------------------------------3-------2-------|
D|--3--------------------2----------3-------3-------|
A|--3--------------------3----------1-------0-------|
E|--1--------------------0--------------------------|

The sweeter the bruise the feelin starts coming ba-    ack
e|--------------------------------------------------------------|
B|--------------------------------------------------------------|
G|----------------------------------------------3-------2-------|
D|--3----------------------2--------------------3-------3-------|
A|--3----------------------3--------------------1-------0-------|
E|--1----------------------0------------------------------------|

All the deepest blues are,   deepest blues are -
Guitar 1:
e|------3--------------------1---------------------|
B|------3--------------------2---------------------|
G|------4--------------------3---------------------|
D|------5--------------------3---------------------|
A|------5--------------------1---------------------|
E|------3------------------------------------------|
Guitar 2:
e|-----------------------------------------------|
B|-----------------------------------------------|
G|------7--------------------10-12---14----15----|
D|------x---------------------x--x----x-----x----|
A|------5---------------------8-10---12----13----|
E|-----------------------------------------------|


Bridge:

       -black..      When it comes     closin' in

Guitar 1:
e|------3------------------------------x-----------|
B|------1------------------------------4-----------|
G|------2------------------------------5-----------|
D|------3------------------------------5-----------|
A|------x------------------------------x-----------|
E|------1------------------------------4-----------|

Guitar 2:
e|-----------------------------------------------|
B|-----------------------------------------------|
G|-----10------------------------------8---------|
D|------x------------------------------x---------|
A|------8------------------------------6---------|
E|-----------------------------------------------|


    Re- ject            Cause I gotta    move
Guitar 1:
e|-------------------------------------------------|
B|-------8-----------------------------------------|
G|-------8-------------------------------3---------|
D|-------8-------------------------------3---------|
A|-------6-------------------------------1---------|
E|-------------------------------------------------|

Guitar 2:
e|-------------------------------------------------|
B|-------------------------------------------------|
G|------12-------------------------------7---------|
D|-------x-------------------------------x---------|
A|------10-------------------------------5---------|
E|-------------------------------------------------|


And the simple things       Get in the openings
Guitar 1:
e|------3------------------------------x-----------|
B|------1------------------------------4-----------|
G|------2------------------------------5-----------|
D|------3------------------------------5-----------|
A|------x------------------------------x-----------|
E|------1------------------------------4-----------|

Guitar 2:
e|-----------------------------------------------|
B|-----------------------------------------------|
G|-----10------------------------------8---------|
D|------x------------------------------x---------|
A|------8------------------------------6---------|
E|-----------------------------------------------|


    Con- nect..         become something new
Guitar 1:
e|-------------------------------------------------|
B|-------8-----------------------------------------|
G|-------8-------------------------------3---------|
D|-------8-------------------------------3---------|
A|-------6-------------------------------1---------|
E|-------------------------------------------------|

Guitar 2:
e|-------------------------------------------------|
B|-------------------------------------------------|
G|------12-------------------------------7---------|
D|-------x-------------------------------x---------|
A|------10-------------------------------5---------|
E|-------------------------------------------------|


     To remo-                             ove
Guitar 1:
e|-------------------------------------------------|
B|-------4-----------------------------------------|
G|-------6-----------------------------------------|
D|-------3-----------------------------------------|
A|-------4-----------------------------------------|
E|-------------------------------------------------|

Guitar 2:
e|-------------------------------------------------|
B|-------------------------------------------------|
G|-------6----8---10---12---13---15---17---20------|
D|-------x----x----x----x----x----x----x----x------|
A|-------4----6----8---10---11---13---15---18------|
E|-------------------------------------------------|

Chorus:

The deeper the blues the more I see bla-    ack
e|--------------------------------------------------|
B|--------------------------------------------------|
G|----------------------------------3-------2-------|
D|--3--------------------2----------3-------3-------|
A|--3--------------------3----------1-------0-------|
E|--1--------------------0--------------------------|

The sweeter the bruise the feelin starts coming ba-    ack
e|--------------------------------------------------------------|
B|--------------------------------------------------------------|
G|----------------------------------------------3-------2-------|
D|--3----------------------2--------------------3-------3-------|
A|--3----------------------3--------------------1-------0-------|
E|--1----------------------0------------------------------------|

All the deepest blues are,   deepest   blues    are -
Guitar 1
e|------3----------------------------------------------------|
B|------3--------------------6-6-6-6-6-6-6-6-6-6-6-6---------|
G|------4--------------------6-6-6-6-6-6-6-6-6-6-6-6---------|
D|------5--------------------8-8-8-8-8-8-8-8-8-8-8-8---------|
A|------5--------------------8-8-8-8-8-8-8-8-8-8-8-8---------|
E|------3--------------------6-6-6-6-6-6-6-6-6-6-6-6---------|
Guitar 2
e|-----------------------------------------------------------|
B|---------------------------6-6-6-6-6-6-6-6-6-6-6-6---------|
G|------7--------------------6-6-6-6-6-6-6-6-6-6-6-6---------|
D|------x--------------------8-8-8-8-8-8-8-8-8-8-8-8---------|
A|------5--------------------8-8-8-8-8-8-8-8-8-8-8-8---------|
E|---------------------------6-6-6-6-6-6-6-6-6-6-6-6---------|

  - black

Guitar 1:
e|--3---------------|
B|--1---------------|
G|--2---------------|
D|--3---------------|
A|--x---------------|
E|--1---------------|

Guitar 2:
e|--------------------------------------------|
B|--------------------------------------------|
G|--------------------------------------------|
D|--------------------------------------------|
A|-3---3---3-3---3---3-3---3---3-3---3---3----|
E|-1p0-1p0-1-1p0-1p0-1-1p0-1p0-1-1p0-1p0-1----|



Thanks, please comment and/or rate!
Show more