----------------------------------------------------------------------------
                          For Today - Words Of Hope
----------------------------------------------------------------------------


Tabed - funkyeyes


Tablature Legend
----------------
h - Hammer-On
p - Pull-Off
t - Tap
b - Bend
\ - Slide Up



this is my first Tab i'v made
this is not the solo, i think its the Brige
thanks for lookin. please rate, comment and have fun =)


  Gtr 1
E|-13p9---------------|---------------------------|
B|------11------------|---------------------------|
G|---------10-11p10---|------11----14-12-11-12-11-|
D|------------------8-|-12-9----12----------------|
A|--------------------|---------------------------|
E|--------------------|---------------------------|


  Gtr 1
E|-14h15h16-13p9---------------|---------------------------|
B|---------------11------------|---------------------------|
G|------------------10-11p10---|------11----14-12-11-12-11-|
D|---------------------------8-|-12-9----12----------------|
A|-----------------------------|---------------------------|
E|-----------------------------|---------------------------|


  Gtr 1
E|-13p9---------------|---------------------------|
B|------11------------|---------------------------|
G|---------10-11p10---|------11----14-12-11-12-11-|
D|------------------8-|-12-9----12----------------|
A|--------------------|---------------------------|
E|--------------------|---------------------------|


  Gtr 1
E|-14h15h16-13p9---------------|---------------------------|
B|---------------11------------|---------------------------|
G|------------------10-11p10---|------11----14-12-11-12-11-|
D|---------------------------8-|-12-9----12----------------|
A|-----------------------------|---------------------------|
E|-----------------------------|---------------------------|


  Gtr 1
E|-13p9---------------|---------------------------|
B|------11------------|---------------------------|
G|---------10-11p10---|------11----14-12-11-12-11-|
D|------------------8-|-12-9----12----------------|
A|--------------------|---------------------------|
E|--------------------|---------------------------|
Show more