• Song:

    Bada Bing Wit A Pipe

  • Artist:

    Four Year Strong

FOUR YEAR STRONG - Bada Bing! Wit' A Pipe!
BASS Tab
AWESOME SONG!  Tabbed by Jesse Furey! :D
This is what i think sounds good


INTRO                                               play this after 2nd time
G|--------------------------------------------------|  |-------------|
D|--------------------------------------------------|  |-------------|
A|-22--00----0----22--00--5---22--00----------------|x2|-------------|
D|---------44------------4-----------xxx55555555555-|  |-7777777777\-|

(VERSE)  [singing bad!, this is your life story.......]
G|-------------------------------------------------|
D|-------------------------------------------------|
A|--4h5-00-0-00-0-0h2---------22-2-4h5-0-00-0-00h2-|
D|--------------------5-55-5-5---------------------|

G|------------------------------------|
D|------------------------------------|
A|---------222222-4h5-0-00000000000---|x2
D|-55555555---------------------------|

PRE_CHORUS
G|-------------------------------------------------------|
D|-------------------------------------------------------|
A|---------------------------------------------00000000--|
D|-555-555-555-555-222-222-222-222-555555555555----------|

Chorus (Let me see you put your hands up on the stereo....)
G|------------------------------------------------------------------------|
D|------------------------------------------------------------------------|
A|----------------0-2222\---0-x222---0-------0-----0-222-----0-22222222-0!|
D|--0~----x00-0-0---------------------00--000-000-------------------------|

VERSE x1
PRE-CHORUS x2

CHORUS 2
G|-------------------------------------------|
D|-------------------------------------------|
A|----------------02222222222222200022222220-|
D|-000000000000000---------------------------|

-----------------------------------|
-----------------------------------|
-0-------0---0-222----0-22222222-0-|
--00--000-00-----------------------|

INTERLUDE

G|----------------------------------|
D|----------------------------------|
A|-22----------------22---------5!--|x1.5
D|-----55-77-44-4445----55-77--0----|

INTRO x1

(CHORUS 2)x1

!!!!!!!!FIN!!!!!!!!
Show more