• Song:

    You Are My Sunshine

  • Artist:

    Frank Turner

  • Album:

    Jonah Matranga / Frank ...

sponsored links
-------------------------------------------------------------------------------
			     You Are My Sunshine - Frank Turner
-------------------------------------------------------------------------------
Tabbed by: Phil Conry*

Tuning: Standard
Capo: 2nd Fret

thought it was a travesty that no one had posted a tab for franks version of this yet, 
i thought id figure it out myself. as its so beautiful.

i know theres more than one guitar part going, but ive only figured out the main rhythm 
one so far. my bad.

its finger picked throughout, but strumming it sounds just peachy also.

the picking pattern for each chord throughout remains the same (ish - youll figure it out).


so when you see a D you do this:
(he only does the hammer every now and then throughout the song)
   De|---2-------2-------2-------2-----0h2------2-------2-------2------| (xx0232@1)B|-------3-------3-------3-------3------3-------3-------3-------3--|
G|-----2-------2-------2-------2------2-------2-------2-------2----|
D|-0-------0-------0-------0-------0------0-------0-------0--------|
A|-----------------------------------------------------------------|
E|-----------------------------------------------------------------|


when you see a G you do this:
   Ge|---3-------3-------3-------3-------3-------3-------3-------3-----| (320003@1)B|-------3-------3-------3-------3-------3-------3-------3-------3-|
G|-----0-------0-------0-------0-------0-------0-------0-------0---|
D|---------0-------0-------0---------------0-------0-------0-------|
A|-----------------------------------------------------------------|
E|-3-------------------------------3-------------------------------|


when you see an A you do this:
   Ae|---0-------0-------0-------0-------0-------0-------0-------0-----| (x02220@1)B|-------2-------2-------2-------2-------2-------2-------2-------2-|
G|-----2-------2-------2-------2-------2-------2-------2-------2---|
D|-----------------------------------------------------------------|
A|-0-------0-------0-------0-------0-------0-------0-------0-------|
E|-----------------------------------------------------------------|


when you see a Bm you do this:
(sometimes the second way, depending on the part of the song)
   Bm (x24432@1)                            
e|---2-------2-------2-------2-------2-------2-------2-------2-------|
B|-------3-------3-------3-------3-------3-------3-------3-------3---|
G|-----4-------4-------4-------4-------4-------4-------4-------4-----|
D|-----------------------------------------4---------------4---------|
A|-2-------2-------2-------2-------2---------------2-----------------|
E|-------------------------------------------------------------------|

DYou (xx0232@1)are my sunshine, My only sunshine
            G (320003@1)                   DYou (xx0232@1)make me happy, When skies are gray
            G (320003@1)                   DYoull (xx0232@1)never know dear, How much i love you
                  A (x02220@1)         DPlease (xx0232@1)dont take, My sunshine away.

DThe (xx0232@1)other night dear, As i lay sleeping
           G (320003@1)             DI (xx0232@1)dreamt i held you, In my arms
       G (320003@1)               DWhen (xx0232@1)i awoke dear, I was mistaken
              A (x02220@1)       DAnd (xx0232@1)i hung my head, and cried.

DIll (xx0232@1)always love you, And make you happy
             G (320003@1)           DIf (xx0232@1)you would only, Say the same
           G (320003@1)               BmBut (x24432@1)if you leave me, To love another
D (xx0232@1)             A (x02220@1)  DYoull (xx0232@1)regret it all, Someday

DYou (xx0232@1)told me once dear, You really loved me
           G (320003@1)              DAnd (xx0232@1)no one else could, Come between
               G (320003@1)              BmBut (x24432@1)now youve left me, And love another
         D (xx0232@1)       A (x02220@1)    Bm (x24432@1)      GYou (320003@1)have shattered all my dreams

D (xx0232@1)                A (x02220@1)       Bm (x24432@1)     GYou (320003@1)are my sunshine, My only sunshine
            D (xx0232@1)  A (x02220@1)    Bm (x24432@1)           GYou (320003@1)make me happy, When skies are gray
            D (xx0232@1)      A (x02220@1)        Bm (x24432@1)       GYoull (320003@1)never know dear, How much i love you
        D (xx0232@1)       A (x02220@1)             DPlease (xx0232@1)dont take, my sunshine away


gradually drop the tempo on the final D and then end on the hammer on.

sorted.

:)


| /  slide up
| \  slide down
| h  hammer-on
| p  pull-off
| ~  vibrato
| +  harmonic
| x  Mute note
===============================================================================

Show more
sponsored links
sponsored links