• Song:

    10 45 Amsterdam Conversation

  • Artist:

    Funeral For A Friend

Funeral For A Friend - 10:45 Amsterdam Conversations
Album:Seven Ways To Scream Your Name
Tabbed by Mike Parker

Standard Tuning: E A D G

Intro(bass enters at 0:09)
G:------------------------------------------------------------------|
D:---------------- 0-222-222-444-666--------------------------------|
A:-444-444-444-444--------------------------------------------------|x4
E:------------------------------------------------------------------|

G:----------------------------------|
D:-7~~~~~~~-------------------------|
A:----------------------------------|
E:----------------------------------|

Verse
G:---------------------------------------|
D:---------------------------------------|
A:-5h444444444444444-5h444-5h44444444444-|x4
E:---------------------------------------|

Pre Chorus
G:-------------------------------------------|
D:-----------22-44-------------22-44---------|
A:000-000-22--------000-000-22---------------|x4
E:-------------------------------------------|

Chorus 1

G:------------------------------------------------------------------|
D:-----------------0-222-222-444-666--------------------------------|
A:-444-444-444-444--------------------------------------------------|x4
E:------------------------------------------------------------------|

G:----------------------------------|
D:-7~~~~~~~-------------------------|
A:----------------------------------|
E:----------------------------------|

Repeat:
Verse
Pre Chorus

Chorus 2
G:------------------------------------------------------------------|
D:---------------- 0-222-222-444-666--------------------------------|
A:-444-444-444-444--------------------------------------------------|x4
E:------------------------------------------------------------------|

G:-------------------------------------------------|
D:-7~~~~~~~-----------7~~~~~~~---------------------|
A:-------------------------------------------------|x2
E:-------------------------------------------------|

Bridge
G:----------------------------------|
D:----------------------------------|
A:----------------------------------|x4
E:-0~~~~~~~-------------------------|

Outro
G:--------------------------------------------------|
D:--2222-4444---------------------------------------|
A:------------0000-2222-000-44-66-------------------|x8
E:--------------------------------------------------|

G:------------------------------------------------------------------|
D:-2~~~~~~~~~~~~~~~~~~~~~~~~~~~~~~~---------------------------------|
A:------------------------------------------------------------------|x1
E:------------------------------------------------------------------|
Show more