• Song:

    Alvarez

  • Artist:

    Funeral For A Friend

ARTIST: Funeral For A Friend
TITLE:  Alvarez
TABBER:	Luke Charman (emoluke {AT} gmail.com)

Here's just the intro for Alvarez. Need to get my hands on the awesomeness
that is Hours on June 14th before I can tab this all.

Enjoy!

eb|-------------------------|----------------------|
Bb|-------------------------|----------------------|
Gb|-------------------------|----------------------|
Db|-----------6---8---9-8---|-----------6---11p8---|
Ab|-------9---------------9-|-------9------------9-|
Db|-6-666---6---6---6-------|-6-666---6---6--------|
    . ...   .   .   .         . ...   .   .

eb|--------------------------|--------------------------|
Bb|--------------------------|--------------------------|
Gb|--------------------------|---------------8----------|
Db|-----------6---11p8-----8-|-----------6-----8---11p8-|
Ab|-7-777-9-7---7------9p6---|-7-777-9-7---7-----9------|
Db|--------------------------|--------------------------|
    . ...   .   .              . ...   .   .
Show more