• Song:

    Bullet Theory

  • Artist:

    Funeral For A Friend

  • Album:

    Bullet Theory / She Dro...

guitar intro

chorus(0:13)
-------------------------------|
-------------------------------|
-------3-33333-3-33-5-555555---|   (x2)
7-77---------------------------|


verse 1(0:28)
-------------------------------------------------------------------|
-------------------------------------------------------------------|
---------------------8-10--8-10------10-12----10-12-----10-12/-13--|(x4)
0000-(x4)-----------8-----8--------10-------10--------12-----------|


chorus (0:56)

-------------------------------|
-------------------------------|
-------3-33333-3-33-5-555555---|   (x2)
7-77---------------------------|


verse(1:10)

-------------------------------------------------------------------|
-------------------------------------------------------------------|
---------------------8-10--8-10------10-12----10-12-----10-12/-13--|(x4)
0000-(x4)-----------8-----8--------10-------10--------12-----------|


chorus(1:38)


-------------------------------|
-------------------------------|
-------3-33333-3-33-5-555555---|   (x2)
7-77---------------------------|


guitar on its own (2:07)


bridge thing(2:20)

----------------|
----------------|
----------------|(x8)
0-0-0-0-0000----|

~~~guitar bit~~~~

final chorus(2:56)

-------------------------------|
-------------------------------|
-------3-33333-3-33-5-555555---|   (x3)
7-77---------------------------|
-------------------------------|
-------------------------------|
-------3-33333-3-33-5~---------|
7-77---------------------------|

This is my first ever tab so please rate,have fun and enjoy!!
Show more