• Song:

    Drive

  • Artist:

    Funeral For A Friend

-------------------------------------------------------------------------------
			     Drive - Funeral for A Friend
-------------------------------------------------------------------------------

 Tabbed By : dvanwyk
 e-mail: dustinvanwyk@yahoo.com
 
 Tuning:Drop D Falt (Db Ab Db Gb)

  Chorus x2 (0.45)
Gb|-----------------------------------------------------------------------|
Db|-----------------------------------------------------------------------|
Ab|7777777777777777-5555555555555555-3333333333333333-3333333333333333----|
Db|-----------------------------------------------------------------------|

  Verse x2 "This could be a movie...."
Gb|-----------------------------------------------------------------------|
Db|-----------------------------------------------------------------------|
Ab|-----------------------------------------------------------------------|
Db|9999999999999999-7777777777777777-5555555555555555-5555555555555555----|

 Chorus x2 "This could be a movie...."
Gb|-----------------------------------------------------------------------|
Db|-----------------------------------------------------------------------|
Ab|7777777777777777-5555555555555555-3333333333333333-3333333333333333----|
Db|-----------------------------------------------------------------------|

  Bridge x4 "Sitting in the car...."
Gb|-------------------------------------------------|
Db|-------------------------------------------------|
Ab|2-22-23--0-00-0-0-00---2-22-2h3------------------|
Db|---------------------------------2~---4-~-5~-----|

  Pause
  
  Chorus x2
Gb|-----------------------------------------------------------------------|
Db|-----------------------------------------------------------------------|
Ab|7777777777777777-5555555555555555-3333333333333333-3333333333333333----|
Db|-----------------------------------------------------------------------|

  Bridge x4
Gb|-------------------------------------------------|
Db|-------------------------------------------------|
Ab|2-22-23--0-00-0-0-00---2-22-2h3------------------|
Db|---------------------------------2~---4-~-5~-----|
Show more