• Song:

    Metal Heart

  • Artist:

    Garbage

L.A.RAI

Band: GARBAGE
Song: METAL HEART
Album: BLEED LIKE ME
Tuning: STANDARD EADGBe

E----------------------------------------|
B----------------------------------------|
G------------------9---------------------|
D--5-----8----3----9---------------------|
A--5-----8----3----7---------------------|
E--3-----6----1--------------------------|

This is played when Shirley starts singing
"Now that we know for sure they're telling lies..."


After "the world is round"-
Repeat this a few times:

E----------------------------------------------------16-14--------|
B--16--14-16-14-16-14-16-14-16-14-16-14--16-14-16-14--------------|
G-----------------------------------------------------------------|
D-----------------------------------------------------------------|
A-----------------------------------------------------------------|
E-----------------------------------------------------------------|
Show more