• Song:

    Number 1 Crush

  • Artist:

    Garbage

Artist - Garbage
Song - #1 Crush
Album - Romeo and Juliet Soundtrack

Drop D Tuning

G/-------------------
D/-------------------
A/-------------------  
D/-0--0-0--2-3-3-5-7-

G/--------------------------------------------
D/--------------------------------------------
A/--------------------------------------------
D/-8--8-8--8--8-8--10-8---5--5-5--5--5-5--6-5-




G/-------------------
D/-------------------
A/-------------------  
D/-0--0-0--2-3-3-5-7-

G/--------------------------------------------
D/--------------------------------------------
A/--------------------------------------------
D/-8--8-8--8--8-8--10-8---5--5-5--5--5-5--6-5-


im pretty sure thats it
Show more