• Song:

    Run Baby Run

  • Artist:

    Garbage

  • Album:

    Run Baby Run

L.A.RAI
RUN BABY RUN
GARBAGE
BLEED LIKE ME
Intro
e--7--------8---------10--------------------------------------|
B-------------------------------------------------------------|
G-------------------------------------------------------------|
D-------------------------------------------------------------|
A-------------------------------------------------------------|
E-------------------------------------------------------------|
Play each note v.fast

About 7 seconds into the song(when drums come in),this is played:
RIFF1
E--------------------------------------------------------------|
B--------------------------------------------------------------|
G-5--------5-------4--------5----------------------------------|
D-5----5---5--5---4---5---5---5--------------------------------|
A-3----5---3--5---2---5---3---5--------------------------------|
E-------3------3--------3-------3------------------------------|

(I?m still working on the verses)

Chorus
e----------------------------------------------------------------------------|
B----------------------------------------------------------------------------|
G--5-5-5-5-5-----------------------------------4----4-4----------------------|
D--5-5-5-5-5---7---7-7-7-7-----5---5-5-----4----4-4--------------------------|
A--3-3-3-3-3---7---7-7-7-7-----5---5-5-----2----2-2--------------------------|
E-----------------5---5-5-5-5-----3---3-3------------------------------------|

Play RIFF 1 excluding the last 4 chords before u enter the second verse

Chorus No.2-Add this in
e-----------------------------------------5--0-6----5-------------------|
B----------------------------------6--8---------------------------------|
G-----------------5------9--5-------------------------------------------|
D-----------------------------------------------------------------------|
A-----------------------------------------------------------------------|
E ----------------------------------------------------------------------|
Show more