• Song:

    Sleep

  • Artist:

    Garbage

  • Album:

    The G-Side Collection

Band: Garbage
Song Title: Sleep
Tuning: Eb Ab Db Gb Bb Eb

Intro & Verse:
Piano Arranged For Guitar

Eb|-------0---0---|-------0-----|-------0---0-0---|
Bb|---------4-----|---------4---|---------4---0---|
Gb|-----2---------|-----2-------|-----2-------2---|
Db|---------------|-------------|---0---------3---|
Ab|---0-----------|-------------|-----------------|
Eb|---------------|---1---------|-----------------|

Verse 1:

In the middle of the night 
Head on my pillow 
Looking like a little ghost 

Seems like all of the things 
That you gave your mother 
Have all gone up in smoke 

In the middle of the night 
Band: Garbage
Song Title: Sleep
Tuning: Eb Ab Db Gb Bb Eb

Intro & Verse: (Main Piano Part)
Piano Arranged For Guitar

Eb|-------0---0---|-------0-----|-------0---0-0---|
Bb|---------4-----|---------4---|---------4---0---|
Gb|-----2---------|-----2-------|-----2-------2---|
Db|---------------|-------------|---0---------3---|
Ab|---0-----------|-------------|-----------------|
Eb|---------------|---1---------|-----------------|

Verse 1:

In the middle of the night 
Head on my pillow 
Looking like a little ghost 

Seems like all of the things 
That you gave your mother 
Have all gone up in smoke 

In the middle of the night 
You don't know what I'm thinking 
But still the stars still sparkle and shine 

Seems like all of the time 
Our boat was slowly sinking 
You didn't even seem to mind 

Chorus:

Piano Arranged For Guitar

      F
Eb|---0---------|
Bb|---1---------|
Gb|---2---------|
Db|---3---(2)---|
Ab|---3---(2)---|
Eb|--------0----|

Now all I want to do is sleep (Main piano part onece)
Now all I want to do is sleep (Main piano part onece)
Now all I want to do is sleep (Strum an F chord once and fade out)
Show more