• Song:

    So Like A Rose

  • Artist:

    Garbage

  • Album:

    Beautiful Garbage

Band: Garbage
Song Title: So Like A Rose
Tuning: Normal

Main guitar starts at (0:06)

Ive made some changes to the song mostly the guitar II picking riff for the second verse. 

Alot of players use a regular "E" chord for this song. I thin the "Esus" chord is 
so much nicer. Play around with both. I think you will hear the difference.

Guitar Chords For This Song

   Esus4  A/2   A     A7    G5    G     F#7sus4
E|---2----------------------------3-----2---|
B|---5-----------------2----------3-----2---|
G|---4-----2-----2----------------0-----2---|
D|---2-----2-----2-----2----3-----0-----2---|
A|---2-----------2----------3-----0-----2---|
E|---0----------------------1-----3---------|

Fill Riff A
H.O. stands for hammer on

E|------------------|
B|---2----------2---|
G|---2-H.O.-4---2---|
D|---2----------2---|
A|------------------|
E|------------------|


Intro:
Listen to song for chords changes for the intro.

    Esus4   A
E|---2---------|
B|---5-----2---|
G|---4-----2---|
D|---2-----2---|
A|---2---------|
E|-------------|



Verse 1:

Esus (baby)           A (after dying)
Baby thinks he's dying 

Esus4 (lost)        A (room)
Lost inside his bedroom 

Esus4 (mommy)        A (ing)
Mommy won't stop crying 

Esus4 (and)         A (working)
And daddy's always working 

G (theres)           A (after back) (Fill Riff A)
There's no going back 

G (theres)           A (after back) (Fill Riff A)
There's no going back 

G (theres)           A (after back) (Fill Riff A)
There's no going back 

A (on)
On this one 

Guitar fill between chorus and second verse.

Guitar Fill A

E|------4----|----4----|----4----|----4----|----4----|----4----|----4----|----4----4-h-5--4---4---|
B|---------5-|-------5-|-------5-|-------5-|-------5-|-------5-|-------5-|-------5----------5-----|
G|---4-------|-4-------|-4-------|-4-------|-6-------|-6-------|-6-------|-6----------------------|
D|-----------|---------|---------|---------|---------|---------|---------|------------------------|
A|-----------|---------|---------|---------|---------|---------|---------|------------------------|
E|-----------|---------|---------|---------|---------|---------|---------|------------------------|


Verse 2:
Guitar 2 plays the above fill for the second verse.

Esus4 (baby)               A (sun)
Baby wakes up with the sun 

Esus4 (while)              A (sleeping)
While everyone is sleeping 

Esus4 (he)                 A (crazy)
He thinks he's going crazy 

Esus4 (wow)                   A (one)
Wow this could be the big one 

G (theres)           A (after back) (Fill Riff A)
There's no going back 

G (theres)           A (after back) (Fill Riff A)
There's no going back 

G (theres)           A (after back) (Fill Riff A)
There's no going back 

Guitar Solo Thing:

E|-------------------------------------------|
B|-------------------------------------------|
G|-------------------------------------------|
D|-------------------------------------------|
A|-------------------------------------------|
E|-------------------------------------------|

Verse 3:

Esus4 (sleeping)      A (ghosts)
Sleeping with ghosts 

Esus (it's)             A (experience)
It's such a warming experience 

Esus (the)               A (after tonight)
The stars are out tonight 

Esus4 (only)              A (breathing)
Only they can hear you breathing 

G (your)         A (rose)
You're so like a rose 

G (your)         A (rose)
You're so like a rose 

G (your)         A (rose)
You're so like a rose 

A (I)                 E (here)
I wish you could stay here


Outro:

There are a few guitar parts happening during the outro.

Guitar 1
Listen to the song for the chord changes.

E  F#7sus4  A  F#7sus4  E  F#7sus4  A7  F#7sus4  E F#7sus4   A7  F#7sus4

Guitar 2

E|-------0-----------0-----------0-----------0-------------|
B|-----------0-----------0---2---------------2-------------|
G|---------------1-------------------4-----------4---------|
D|---2-----------------------------------4-----------4-----|
A|---------------------------------------------------------|
E|---------------------------------------------------------|


E|---5---------------5-------2---------------2-------------|
B|-------8---5-----------5-------5---2-----------2---------|
G|---------------6-----------------------4-----------4-----|
D|---------------------------------------------------------|
A|---------------------------------------------------------|
E|---------------------------------------------------------|


Guitar 3

E|---0-------0---------------0---|---0-------0---------------0-------------|
B|---0---0-------0-----------2---|---0---0-------0-----------2-------------|
G|---1-----------------------2---|---1-----------------------0-------------|
D|---2-----------------------2---|---2-----------------------2-------------|
A|---2-----------------------0---|---2-----------------------0-------------|
E|---0---------------------------|---0-------------------------------------|


Guitar 4
Play this part 5 times and the song fades out.

E|----------------7-----------|----------------7-----------|
B|--------7-----------7-------|--------7-----------7-------|
G|---/9-------9-----------9---|---/9-------9-----------9---|
D|----------------------------|----------------------------|
A|----------------------------|----------------------------|
E|----------------------------|----------------------------|

E|----------------9--------|----------------7-----------|
B|--------8-----------8----|--------7-----------7-------|
G|---/9-------9----------9-|---/9-------9-----------9---|
D|-------------------------|----------------------------|
A|-------------------------|----------------------------|
E|-------------------------|----------------------------|


E|-------------------------------------------|
B|-------------------------------------------|
G|-------------------------------------------|
D|-------------------------------------------|
A|-------------------------------------------|
E|-------------------------------------------|
Show more