• Song:

    Temptation waits

  • Artist:

    Garbage

  • Album:

    Trash & Burn

Band: Garbage
Song Title: Temptation Waits
Tuning: Normal

Chords Used For This Song

     A    A7     B     C    C#m    D     E    F/A   F#    F#m   G#
E|---0-----3-----2-----0-----4-----2-----0-----1-----2-----2-----4---|
B|---2-----2-----4-----1-----5-----3-----0-----1-----2-----2-----4---|
G|---2-----2-----4-----0-----6-----2-----2-----2-----3-----3-----5---|
D|---2-----2-----4-----2-----6-----0-----2-----3-----4-----4-----6---|
A|---0-----0-----2-----3-----4-----X-----1-----0-----4-----4-----6---|
E|---X-----X-----X-----X-----X-----X-----0-----X-----2-----2-----4---|

Verse 1:

[E]I'll tell you something 

[C]I am a wolf but 

[A]I like to wear sheep's [E]clothing 

[A]I am a bonfire 

[C]I am a vampire 

[A]I'm waiting for my [E]moment 

Chorus:

[C#m]You come on like a drug 

[F#]I just can't get enough 

[A]I'm like an addict coming at you for a [E]little [G#]more 

[C#m]And there's so much at stake 

[F#]I can't afford to waste 

[A]I never needed anybody like [E]this [G#]before 

Play Riff A (4 Times)
Riff A                         Riff A (Easier For Beginners)
E|---------------------------| E|-------0-----------0-------|
B|-------5-P-0---3---5-------| B|-----------0---3-----------|
G|---------------------------| G|---------------------------|
D|---2-------------------2---| D|---2-------------------2---|
A|---------------------------| A|---------------------------|
E|---------------------------| E|---------------------------|

Verse 2:
There is a riff in the verse that can be played a couple of different ways. I 

have made two versions of it. ways. One I made easier for beginners.

Guitar Tab Legend
> = Bend Up To Note In ()
< = Release Back To Base Note
P = Pull Off
H = Hammer On

Riff A                         Riff A (Easier For Beginners)
E|---------------------------| E|-------0-----------0-------|
B|-------5-P-0---3---5-------| B|-----------0---3-----------|
G|---------------------------| G|---------------------------|
D|---2-------------------2---| D|---2-------------------2---|
A|---------------------------| A|---------------------------|
E|---------------------------| E|---------------------------|

[E]I'll tell you something 

[C]I am a demon 

[A]Some say my biggest [E]weakness 

[E]I have my reasons 

[C]Call it my defense 

[A]Be careful what you're [E]wishing 

Chorus:

[C#m]You come on like a drug 

[F#]I just can't get enough 

[A]I'm like an addict coming at you for a [E]little [G#]more 

[C#m]And there's so much at stake 

[F#]I can't afford to waste 

[A]I never needed anybody like [E]this [G#]before 


Guitar Tab Legend
> = Bend Up To Note In (1) or (1/2)
< = Release Back To Base Note
P = Pull Off
H = Hammer On
~ = Vibrato

Riff C (Play 4 times after second chorus)
E|---------------------------------19~~~---|
B|-----------------20>-(1/2)-<20-----------|
G|---18>-(1)-<18---------------------------|
D|-----------------------------------------|
A|-----------------------------------------|
E|-----------------------------------------|

Instrumental Interlude:
Listen to song for chords changes.

Chords for Interlude:
[A]	[F/A]	[D]	[A7]

E|-------5---5-P-0---3---5-------|-------7>-(1/2)-<7---5---|
B|-------------------------------|-------------------------|
G|---2-----------------------2---|---2---------------------|
D|-------------------------------|-------------------------|
A|-------------------------------|-------------------------|
E|-------------------------------|-------------------------|

Bridge:
The chords are more implied than played in this section.

[E]You are a secret

[C]A new posession

[A]I like to keep you guessing

Chorus:

[C#m]You come on like a drug 

[F#]I just can't get enough 

[A]I'm like an addict coming at you for a [E]little [G#]more 

[A]And there's so much at stake 

[C#m]I can't afford to waste 

[F#m]I never needed anybody like [A]this [B]before

[E]	[C]	[A]	[E]	[E]	[C]
ooh	ooh	ooh	ooh	ooh	ooh

Outro:

[E]When I'm not sure what [C]I'm living for 
(When I'm not sure who I am) 

[A]When I'm not sure what [E]I'm looking for 
(When I'm not sure who I am) 

[E]When I'm not sure what [C]I'm living for 
(When I'm not sure who I am) 

[A]When I'm not sure what [E]I'm looking for 
(When I'm not sure who I am)

When I'm not sure what I'm living for 
When I'm not sure what I'm looking for 
When I'm not sure what I'm living for.
Show more