• Song:

    When i grow up

  • Artist:

    Garbage

  • Album:

    Trash & Burn

artist: Garbage
song: When I Grow Up
Album: Garbage 2.0


Tuning: GDAD



Intro
G:-----------------------------------|
D:-----------------------------------|
A:-----------------------------------|x2
D:-8-8-888-5-5-555-3-3-333-1-1-111---|

Verse 1
G:----------------------------------|
D:----------------------------------|
A:--8-8--8--5-5--5--3-3--3--3-3--3--|x3
D:-8-8-88-85-5-55-53-3-33-33-3-3--3-|

G:----------------------------------|
D:----------------------------------|
A:--8-8--8--5-5--5--3-3--3----------|x1
D:-8-8-88-85-5-55-53-3-33-3---------|

Pre Chorus
G:------------------------------------------------------------------|
D:------------------------------------------------------------------|
A:------------------------------------------------------------------|x1
D:-1-1-111-1-1-111-5-5-555-5-5-555-1-1-111-1-1-111-3-3-333-3-3-333--|

Verse 2 
G:----------------------------------|
D:----------------------------------|
A:--8-8--8--5-5--5--3-3--3--3-3--3--|x1
D:-8-8-88-85-5-55-53-3-33-33-3-3--3-|

G:----------------------------------|
D:----------------------------------|
A:--8-8--8--5-5--5--3-3--3----------|X1
D:-8-8-88-85-5-55-53-3-33-3---------|

Pre Chorus
G:------------------------------------------------------------------|
D:------------------------------------------------------------------|
A:------------------------------------------------------------------|x1
D:-1-1-111-1-1-111-5-5-555-5-5-555-1-1-111-1-1-111-3-3-333-3-3-333--|

Chorus
G:-----------------------------------|
D:-----------------------------------|
A:-----------------------------------|x2
D:-8-8-888-5-5-555-3-3-333-1-1-111---|



Bridge
G:------------------------------------------------------------------|
D:------------------------------------------------------------------|
A:------------------------------------------------------------------|x1
D:-1---------------5---------------1---------------3----------------|

G:------------------------------------------------------------------|
D:------------------------------------------------------------------|
A:--1-1--1--1-1--1--5-5--5--5-5--5--6-6--6--6-6--6--3-3--3--3-3--3--|x1
D:-1-1-11-11-1-11-15-5-55-55-5-55-56-6-66-66-6-66-63-3-33-33-3-3--3-|

Outro/Chorus
G:-----------------------------------|   \ 
D:-----------------------------------|    \
A:-----------------------------------|     \
D:-8-8-888-5-5-555-3-3-333-1-1-111---|      \
                                              X3
G:-----------------------------------|      /
D:-----------------------------------|     /
A:-----------------------------------|    /
D:-8-8-888-5-5-555-3-3-333-6-6-666---|   /

feel free to rate and comment on this tab
Show more