• Song:

    Why do you love me

  • Artist:

    Garbage

  • Album:

    Absolute Garbage

Urm..I hope this is right =) 

Intro
--------------------|
--------------------|
--------------------|
--------------------|x2
----5---7---5---7---|
--0-3-0-5-0-3-0-5-0-|

Verse 1

E---------------------------------------------------------|
B---------------------------------------------------------|
G---------------------------------------------------------|
D-999999-555555--------777777-999999-555555--------444444-|x2
A-777777-333333-555555-555555-777777-333333-555555-222222-|
E---------------333333----------------------333333--------|

------------------------------|
------------------------------|
------------------------------|
--555555-555555-777777-777777-|x2
--333333-333333-555555-555555-|
------------------------------|

Chorus

----------------------------------------------------------|
----------------------------------------------------------|
---------555555--------777777--------555555--------444444-|
--222222-555555-555555-777777-222222-555555-555555-444444-|
--222222-333333-555555-555555-222222-333333-555555-222222-|
--000000--------333333--------000000--------333333--------|

|-----------------------------------------------------------------|
|-----------------------------------------------------------------|
|--------555555--------777777-----------5-5-5-5-----------4-4-4-4-|
|-222222-555555-555555-777777--2-2-2-2--5-5-5-5--5-5-5-5--4-4-4-4-|
|-222222-333333-555555-555555--2-2-2-2--3-3-3-3--5-5-5-5--2-2-2-2-|
|-000000--------333333---------0-0-0-0-----------3-3-3-3----------|

Repeat intro
Verse 2 ; Guitar comes in at 1:25

----------------------------------------------------------|
----------------------------------------------------------|
----------------------------------------------------------|
--999999-555555--------777777-999999-555555--------444444-|
--777777-333333-555555-555555-777777-333333-555555-222222-|
----------------333333----------------------333333--------|

------------------------------|
------------------------------|
------------------------------|
--555555-555555-777777-777777-|x2
--333333-333333-555555-555555-|
------------------------------|

Repeat chorus

----------------------------------------------------------|
----------------------------------------------------------|
--------------------------------------------666666-666666-|
--555555-555555-777777-777777-999999-999999-444444-444444-|
--333333-333333-555555-555555-777777-777777---------------|
----------------------------------------------------------|

--------------------|
--------------------|
--------------------|
--------------------|x4
----5---7---5---7---|
--0-3-0-5-0-3-0-5-0-|

--------------------------------|
--------------------------------|
--------------------------------|
--11-11-11-11-9-7-9-------------|X2
--------10--------------5---7---|
----------------------0-3-0-5-0-|

----------------------------------------------------------|
----------------------------------------------------------|
--------------------------------------------666666-666666-|
--555555-555555-777777-777777-999999-999999-444444-444444-|
--333333-333333-555555-555555-777777-777777---------------|
----------------------------------------------------------|

Last Chorus
----------------------------------------------------------|
----------------------------------------------------------|
---------555555--------777777--------555555--------444444-|
--222222-555555-555555-777777-222222-555555-555555-444444-|x2
--222222-333333-555555-555555-222222-333333-555555-222222-|
--000000--------333333--------000000--------333333--------|

----------------------------------------------------------|
----------------------------------------------------------|
--------------------------------------------666666-666666-|
--555555-555555-777777-777777-999999-999999-444444-444444-|
--333333-333333-555555-555555-777777-777777---------------|
----------------------------------------------------------|

--------------------|
--------------------|
--------------------|
--------------------|
----5---7---5---7---|
--0-3-0-5-0-3-0-5-0-|
Show more