• Song:

    Why do you love me

  • Artist:

    Garbage

  • Album:

    Absolute Garbage

Artist: 	Garbage
Album: 	Absolute Garbage
Title: 	Why Do You Love Me

Tabbed by Kierra Thorn aka poisonzombie


Intro:
|--------------------|
|--------------------|
|--------------------|
|--------------------|
|----5---7---5---7---|
|--0-3-0-5-0-3-0-5-0-|		(x2)


Verse 1:
Em		  C
I'm no Barbie doll
G			D
I'm not your baby girl
Em		   C		  G		  D
I've done ugly things and I have made mistakes
Em		    C			  G	     D
And I am not as pretty as those girls in magazines
Em			C	  G		    D
I am rotten to my core if they're to be believed.

Am						D
So what if I'm no baby bird hanging upon your every word
Am					    D
Nothing ever smells of roses that rises out of mud.


Chorus 1:
Em
Why do you love me
C
Why do you love me
G
Why do you love me
     D
It's driving me crazy		(x3)

Em	     C
Why do you love me
G	     D
Why do you love me


|--------------------|
|--------------------|
|--------------------|
|--------------------|
|----5---7---5---7---|
|--0-3-0-5-0-3-0-5-0-|		(x2)

Verse 2:
Em		    C
You're not some little boy
G			D
Why you acting so surprised
Em			     C
You're sick of all the rules
G				  D
Well I'm sick of all your lies
Em			   C
Now I've held back a wealth of shit
G			D
I think I'm gonna choke
Em			  C
I'm standing in the shadows
	   G			   D
With the words stuck in my throat

Am
Does it really come as a surprise
		D
When I tell you I don't feel good
Am
Nothing ever came from nothing man
   D
Oh man ain't that the truth


Chorus 1:
Em
Why do you love me
C
Why do you love me
G
Why do you love me
     D
It's driving me crazy		(x3)

Em	     C
Why do you love me
G	     D
Why do you love me

Chrous 2:
Em
I get back up and I do it again
C
I get back up and I do it again
G
I get back up and I do it again
D
I get back up and I do it
Do it again


|--------------------|
|--------------------|
|--------------------|
|--------------------|
|----5---7---5---7---|
|--0-3-0-5-0-3-0-5-0-|		(x4)


Verse 3:
I think you're sleeping with a friend of mine
I have no proof
But I think that I'm right

|--------------------|
|--------------------|
|--------------------|
|--------------------|
|----5---7---5---7---|
|--0-3-0-5-0-3-0-5-0-|

And you've still got the most beautiful face
It just makes me sad
Most of the time

|--------------------|
|--------------------|
|--------------------|
|--------------------|
|----5---7---5---7---|
|--0-3-0-5-0-3-0-5-0-|


Chorus 2:
Em
I get back up and I do it again
C
I get back up and I do it again
G
I get back up and I do it again
D
I get back up and I do it
Em
Do it again
C
Do it again
G
Do it again
D
Do it again


Chorus 1:
Em
Why do you love me
C
Why do you love me
G
Why do you love me
     D
It's driving me crazy		(x2)

Em	     C
Why do you love me
G	     D
Why do you love me		(x2)


|--------------------|
|--------------------|
|--------------------|
|--------------------|
|----5---7---5---7---|
|--0-3-0-5-0-3-0-5-0-|

Song Structure:

Intro
Verse 1
Chorus 1
Verse 2
Chorus 1
Chorus 2
Verse 3
Chorus 2
Chorus 1
Show more