Hey guys, great song and I saw mistakes in the other bass tab, and I'm 100% sure this is 
the full song without mistakes.

Intro:

------------------------3---0---|
--------------------------2-----|  x6
-3-3--3-1-1--1-3-3--3-1---------|
--------------------------------|

After intro
------------------------------------------|
------------------------------------------| x1
------------------------------------------|
-1-1--1-1--1-1--1-1--1-1--1-1--1-1--1-1---|

intro x1

intro with change x1
-3---0-----|
---1---2---|
-----------|
-----------|

intro x4

after intro x1

Chorus

-------------5-------------5-4----|
-----3-0---7---7-----2----5-------| x6
---3---------------3---3----------|
-3---------------1----------------|

------------------------------------------------------|
------------------------------------------------------|
------------------------------------------------------| x4
--3(hold)/-1(hold)/-8(hold)---------------------------|

intro x6

after intro x1

intro x1

intro with change x1

intro x4

after intro x1

intro x1

after intro x1

chorus x6

intro until end
Show more