• Song:

    Ik Neem Je Mee

  • Artist:

    Gers Pardoel

It's really quite easy

Intro: Pauze
Verse: Pauze
Chorus:
Begin with a slide across the A string 
G|----------------------------------------------------------------|
D|-------------------88-877-----------------------88-877----------|
A|-(10)(10)-(10)66-6------------(10)(10)-(10)66-6-----------------|
E|----------------------------------------------------------------|

G|----------------------------------------------------------------|
D|-------------------88-877------------8r-7r----------------------|
A|-(10)(10)-(10)66-6------------10r-6r----------------------------|
E|----------------------------------------------------------------|

G|----------------------------------------------------------------|
D|-------------------88-877-----------------------88-877----------|
A|-(10)(10)-(10)66-6------------(10)(10)-(10)66-6-----------------|
E|----------------------------------------------------------------|

G|----------------------------------------------------------------|
D|---------------------------------888888-777777------------8r-7r-|
A|-(10)(10)(10)(10)(10)(10)-666666-------------------10r-6r-------|
E|----------------------------------------------------------------|

Another verse: here you can either take a break or play this:
G|----------------------------------------------------------------|
D|-------------------88-877-----------------------88-877----------|
A|-(10)(10)-(10)66-6------------(10)(10)-(10)66-6-----------------|
E|----------------------------------------------------------------|

Another Chorus

Bridge:
G|----------------------------------------------------------------|
D|----------------------------------------------------------------|
A|-10r--6r--10r--6r-----------------------------------------------|
E|----------------------------------------------------------------|
"Zeg me wat je wil dan"
G|----------------------------------------------------------------|
D|----------------------------------------------------------------|
A|------------------6-6-6-6-6-6-6-6------------------6-6-6-6r-----|
E|--3-3-3-3-3-3-3-3------------------3-3-3-3-3-3-3-3--------------|


Interlude:
pauze for 2 bars and then:
G|----------------------------------------------------------------|
D|---------------------------------888888-777777------------8r-7r-|
A|-(10)(10)(10)(10)(10)(10)-666666-------------------10r-6r-------|
E|----------------------------------------------------------------|

End:
G|----------------------------------------------------------------|
D|-------------------88-877-----------------------88-877----------|
A|-(10)(10)-(10)66-6------------(10)(10)-(10)66-6-----------------|
E|----------------------------------------------------------------|

G|----------------------------------------------------------------|
D|---------------------------------888888-777777------------8r-7r-|
A|-(10)(10)(10)(10)(10)(10)-666666-------------------10r-6r-------|
E|----------------------------------------------------------------|
Show more