• Song:

    Master Daddy

  • Artist:

    Gg Allin

  • Album:

    Violent Beatings

GG Allin
Master daddy
Tabbed by Alexi Stenbacka
Aleksi_stenbacka1@hotmail.com

Verse riff
|---------------------------------|
|---------------------------------|
|---------5-------3---------------|
|-5-------5-------3---3---6-------|
|-5-------3-------1---3---6-------|
|-3-------------------1---4-------|

Chorus riff
|-----------------|
|-----------------|
|-----------------|
|-2-------3-2-3---|
|-2-------3-2-3---|
|-0-------1-0-1---|

Thats it.
Show more