• Song:

    Murder For The Mission

  • Artist:

    Gg Allin

  • Album:

    Rock 'n' Roll Terrorist

Standard tuning

-------------------------|
-------------------------|
-------------------------|
-------------------------|
7-5-7-5-3------7-5-7-5-3-|


-------------------------|
-------------------------|
-------------------------|
7-5-7-5-3------7-5-7-5-3-|


-------------------------|
-------------------------|
-------------------------|
7-5-7-5-3------7-5-7-5-3-|

-------------------------|
-------------------------|
-------------------------|
7-5-7-5-3------7-5-7-5-3-|

wait for a measure or two and then play

last note

------|
------|
------|
3\----|

that is it

oh and aimlessly shout murder while playing it


Thats the whole song whattaya gonna do its punk
Show more