• Song:

    Slaughterhouse Death Camp

  • Artist:

    Gg Allin

  • Album:

    The Singles Collection ...

GG Allin
Slaughterhouse Death camp
Tabbed by Alexi Stenbacka
Aleksi_stenbacka1@hotmail.com

Verse riff
|-----------------------|
|-----------------------|
|-----------------------|
|-9/7---9/7---9/7---5---|
|-9/7---9/7---9/7---5---|
|-7/5---7/5---7/5---3---|

Chorus riff
|-----------------|
|-----------------|
|-----4-----------|
|-4---4---4---5---|
|-4---2---4---5---|
|-2-------2---3---|

And thats that.
Show more