E--------------!-----------------------|
A--------------!-----------------------|
D--------------!---------------2-------|
G-4b-----------!-4b--------------1-2s4-|
B----7b--7s0---!----7b-5-3-2-0---------|
e--------------!-----------------------|

E-------------------------|
A-------------------------|
D-------------------------|  x
G------------44-2-1-1-2s4-|  2
B---3---3--2--------------|
e-2---0--0----------------|
00:32
World was on fire and no one could save me but you

E---!---------!---!----------------------!---!--------- !
A-2-!---------!-0-!----------------------!-2-!--------- !     
D-4-!----x----!-2-!---------x------------!-2-!-----x--- !  x
G-4-!----3----!-2-!---------3------------!-1-!-----2--- !  4
B---!---------!---!----------------------!---!--------- !
E---!---------!---!----------------------!---!--------- !

There is some echo effect I not sure of when playing the above chords, they are not all 
the number of times stated above. Listen to the song to find out correct strumming.

01:02
And I don't wana fall in love

This is the same as above but played faster. Listen to the song to get the rythm.

01:19

E-------------------------|
A-------------------------|
D-------------------------|
G------------44-2-1-1-2s4-|
B---3---3--2--------------|
e-2---0--0----------------|

01:26
What a wicked game to play, to make me feel this way....

E---!---------!---!----------------------!---!--------- !
A-2-!---------!-0-!----------------------!-2-!--------- !     
D-4-!----x----!-2-!---------x------------!-2-!-----x--- !  x
G-4-!----3----!-2-!---------3------------!-1-!-----2--- !  4
B---!---------!---!----------------------!---!--------- !
E---!---------!---!----------------------!---!--------- !

01:48
And I don't wana fall in love

Again this is the same as about but a different and faster rythm.
There is a load of randomness after this but I just contiue playing the same part which 
can still here.

02:28
World was on fire and no one could save me

E---!---------!---!----------------------!---!--------- !
A-2-!---------!-0-!----------------------!-2-!--------- !     
D-4-!----x----!-2-!---------x------------!-2-!-----x--- !  x
G-4-!----3----!-2-!---------3------------!-1-!-----2--- !  4
B---!---------!---!----------------------!---!--------- !
E---!---------!---!----------------------!---!--------- !

Listen to rythm for correct amount of struming

02:59
And I don't wana fall in love

Once again the above but sped up.

And finally strum the chords in order once.


Can't say for certain the chords are correct possible that they are slightly wrong but 
corrections or question email me: ifancysumpie2@hotmail.com
Show more