-------------------------------------------------------------------------------
                             WICKED GAME - Giant Drag
-------------------------------------------------------------------------------
Tabbed by: Rodolfo Romero
Email: drmofcali4niktun118@yahoo.com

Tuning: Standard

Pretty easy song, listen to it for strum patterns. I'm fairly sure my tab is 100%, 
there are some VERY crappy ones on here.


Intro
e|---------------------------------------|
B|0-5/7~--7\0--0-5/7~--5-3-2-0-----------|
G|--------------------------------2---1--|
D|------------------------------4--(2)---|
A|---------------------------------------|
E|---------------------------------------|


Interlude:
e|2--0---------------------------|
B|-3--3-2-0-00-------------------|
G|-------------2-1--1h2-2/4~-----|
D|-------------------------------| (2X)
A|-------------------------------|
E|-------------------------------|


Chords:
Bm, A, E


Interlude:
e|2--0---------------------------|
B|-3--3-2-0-00-------------------|
G|-------------2-1--1h2-2/4~-----|
D|-------------------------------| (2X)
A|-------------------------------|
E|-------------------------------|


Chords:
Bm, A, E


Solo


Chords:
Bm, A, E


End on E


I haven't quite figured out the solo, but a B pentatonic scale should work fine.  That's 
an easy song and a great cover. Enjoy!

| /  slide up
| \  slide down
| h  hammer-on
| p  pull-off
| ~  vibrato
===============================================================================
Show more