• Song:

    Hey

  • Artist:

    Gillmor

Original song can be found here: http://www.myspace.com/gillmormusic
Simple little pop song. Too bad Disney had to ruin this song :P
Tim Pagnotta is amazing.
The intro is piano but you can play along with octaves

Intro:
e|-----|-----|-----|-----|
B|-----|-----|-----|-----|
G|--6--|-----|-----|-----|
D|--x--|--4--|--6--|--4--| 
A|--4--|--x--|--x--|--x--|
E|-----|--2--|--4--|--2--|

Verse:
e|-----|-----|-----|-----|
B|-----|-----|-----|-----|
G|--6--|-----|-----|-----|
D|--6--|--4--|--6--|--4--| x3
A|--4--|--4--|--6--|--4--|
E|-----|--2--|--4--|--2--|

Chorus:
e|-----|-----|-----|-----|
B|-----|-----|-----|-----|
G|--6--|-----|--6--|-----|
D|--6--|--6--|--6--|--4--|
A|--4--|--6--|--4--|--4--|
E|-----|--4--|-----|--2--|

e|-----|-----|-----|
B|-----|-----|-----|
G|--3--|-----|-----|
D|--3--|--6--|--4--| x 2
A|--1--|--6--|--4--|
E|-----|--4--|--2--|

Verse 2:
e|-----|-----|-----|-----|
B|-----|-----|-----|-----|
G|--6--|-----|-----|-----|
D|--6--|--4--|--6--|--4--| x3
A|--4--|--4--|--6--|--4--|
E|-----|--2--|--4--|--2--|

Bridge:
e|-----|-----|-----|-----|
B|-----|-----|-----|-----|
G|--3--|-----|-----|-----|
D|--3--|--6--|--4--|--6--| x 3
A|--1--|--6--|--4--|--6--|
E|-----|--4--|--2--|--4--|

e|-----|-----|-----|-----|-----|
B|-----|-----|-----|-----|-----|
G|--6--|-----|-----|-----|-----|
D|--6--|--6--|--4--|--6--|--4--| x1
A|--4--|--6--|--4--|--6--|--4--|
E|-----|--4--|--2--|--4--|--2--|

Chorus 2:
e|-----|-----|-----|-----|
B|-----|-----|-----|-----|
G|--6--|-----|--6--|-----|
D|--6--|--6--|--6--|--4--|
A|--4--|--6--|--4--|--4--|
E|-----|--4--|-----|--2--|

e|-----|-----|-----|
B|-----|-----|-----|
G|--3--|-----|-----|
D|--3--|--6--|--4--| x until fade
A|--1--|--6--|--4--|
E|-----|--4--|--2--|
Show more