Gin Blossom 
As long as it matters
tab by: Eh! Dong (Drop-d)
5/2/01

intro
e----------------------------0----------------------------------------------------------------
B-----------3------3-------8---8--------------------------------------------------------------
G--------------0---0-----------7----4-5---7--5-4-----4¡X4/2----2--0------------------7--7-----
D--3\5--5------------------------------------------------------------------------5---7\9----9-
A-----------------------------------------------------------------------------5h7-------------
E---------------------------------------------------------------------------------------------

                                                                   ƒ¼ƒ¼       ƒ¼6(x)  
e----10------8----7-----5----3--------------3----------10------10----
B---12-----10----8-----7----5----3h5--5--3----------12------10-------
G--------------------------------------------------------------------
D--------------------------------------------------------------------
A--------------------------------------------------------------------
E--------------------------------------------------------------------

Solo 1

e---------------------------------------------------------------------------------
B-------7\8-----7\8------7\8------------------------------------------------------
G-------------7-------5--------------0h2--0¡X2h4-2-0-----2-0----------------------
D---5---------------------------5----------------------------------2-0------------
A------------------------------------------------------------------------2-0------
E------------------------------------------------------------------------------3--

                                                          ƒ¼ƒ¼ƒ¼ƒ¼
e--------------------------------12----12---------12-------------------
B---8-8---8---8-10---10\12-----12------12----12-----10--8--------------
G----------------------------------------------------------------------
D----------------------------------------------------------------------
A----------------------------------------------------------------------
E----------------------------------------------------------------------

Solo 2

e---------------------------------------------0------------------------
B------0---3-3-3---5--3----0h3---2(x)--0-----0--0---0--------0--0------
G------0---0-0-0¡X0--0 ---0-0-----------0------0h2---4---2---0--0------
D--------------------------------------------2-------------------------
A--------------------------------------------2-------------------------
E----------------------------------------------------------------------

e----------------------------------------------------------------------
B--0---------------0-----------3------------------3-----------------3--
G--0--2---4-2--2-0-----2h4----4--2-0¡X-2h4---4--2-0---2h4--------------
D----------------------------------------------------------------------
A----------------------------------------------------------------------
E----------------------------------------------------------------------


e----------3------------------3-------------------------5--------
B---3h5-----5-3--0---3h5----5-3--0-----3h5--3---3----------------
G----------------------------------------------------------------
D----------------------------------------------------------------
A----------------------------------------------------------------
E----------------------------------------------------------------
Show more