-------------------------------------------------------------------------------
			     Lust for Life - Girls
-------------------------------------------------------------------------------

Tabbed By : bud_spencer

Tuning: E A D G

Verse
G|----------------------------------------------------|
D|----------------------------------------------------|
A|-----9-9------9-11-11-13-13-11-9-9---11-9-8-6-4-4---|
E|-2/9-----9-11----------------------9----------------|

Chorus
G|----------------------------------------------------------------------------|
D|----------------------------------------------------------------------------|
A|--------------------------------9-9-9---------------------------------------|
E|-0\7-7--7-7-7-7/9--9-9-9--9-9--------9-9-9-11-11-11--6-5-4~---7-7-7-7-7-7-7-|


Verse variation
G|--------------------------------------------------------------|
D|----------------------------------11-13-11----13-11-8-11-8----|
A|-----9-9------9-11-11-13-13-11-13----------13-----------------|
E|-2/9-----9-11-------------------------------------------------|


Outro
G|-------------------------------------------------------------------------------|
D|-------------------------------------------------------------------------------|
A|----------------------------9-9-9-----------------13-12-11~-----------------9~-|
E|-0/7-7-7-7-7-7---7/9-9--9~--------9-9-9-11-11-11------------7-7-7-7-7-7-7------|

Bass enters at 0:49

Verse x4
Chorus x1
Verse x2
Verse variation x1
Verse x1
Outro x1 

| /  slide up
| \  slide down
| h  hammer-on
| p  pull-off
| ~  hold note
| +  harmonic
| x  Mute note
===============================================================================
Show more