Girls Aloud - love machine
----------------------------

tabbed by: khalid

i think i  heared it like this please send any comments at (khassanain@hotmail.com)

-----------------------------------------------------------------------------------

[intro]

e|-------------------------------------|
B|-------------------------------------|
G|-------------------------------------|
D|-------6-----------------------------|
A|-------------------------------------|
E|---3-------333--320------------------|

[verse]


(guitar 1)
e|-------------------------------------|           e|---------------------| 
B|-------------------------------------|           b|---------------------|
G|-------------------------------------|           g|---------------------|
D|-------6-----------------------------|           d|----------5-333-2-0--|
A|-------------------------------------| ends with a|-1111-3--------------|
E|---3-------333--320------------------|           E|--------3------------|

(guitar 2)
e|-------------------------------------|
B|-------------------------------------|
G|---5---8---555---5-4-2---------------|
D|---5---8---555---5-4-2---------------|
A|---3---6---333---3-2-----------------|
E|-------------------------------------|

                   --------------------------------------------------
Show more