Glasvegas - Geraldine   -  Tabbed by trixywoo


This is an improved and extended version of an existing tab for this song- thanks
to *OutOfAtlantis* for the help:


Intro: C chord repeated


Verse:

  C (x32010@1)           G (320003@1) F (133211@1)           GE-0000000000000-333-1111111111111-333---------------| (320003@1)B-1111111111111-333-1111111111111-333---------------|
G-0000000000000-000-2222222222222-000---------------|
D-2222222222222-000-3333333333333-000---------------|
A-3333333333333-222-3333333333333-222---------------|
E-xxxxxxxxxxxxx-333-1111111111111-333---------------|

This is repeated throughout the entire song.


The other guitar part, also repeated through the whole song, is:

E---------------------------------------------------|
B---------------------------------------------------|
G--99999999999997775555555555555777-----------------|
D---------------------------------------------------|
A---------------------------------------------------|
E---------------------------------------------------|


Solo:

E---------------------------------------------------|
B---------------------------------------------------|
G--------9/10-9-7------------10-10-9-7-9-7----------|
D------------------10----------------------10-------|
A---------------------------------------------------|
E---------------------------------------------------|

E---------------------------------------------------|
B---------------------------------------------------|
G--------9/10-9-7----------10/12-10-9-7-9-7---------|
D------------------10-----------------------10------|
A---------------------------------------------------|
E---------------------------------------------------|

E---------------------------------------------------|
B---------------------------------------------------|
G--------9/10-9-7------------10-10-9-7-9-7----------|
D------------------10----------------------10-------|
A---------------------------------------------------|
E---------------------------------------------------|

E---------------------------------------------------|
B---------------------------------------------------|
G--------9/10-9-7----------10/12-10-9-7~------------|
D------------------10-------------------------------|
A---------------------------------------------------|
E---------------------------------------------------|



Show more