• Song:

    Dont Stop Believing

  • Artist:

    Glee Cast

So it took me a while to realize that the bass tab for Joureny's Don't Stop Believing 
Glee's version were different. So I wrote the Glee version. Enjoy.

G|--------------------------------------------------|
D|-----------0----2--4--2----4--5-------4--5--------|
A|-----0--2------------------------3----------------|
E|-3------------------------------------------3-----|


G|---------------------------4----------------------|
D|-----------0----2--4------------------4--5--------|
A|-----0--2-------------2-------2--3----------------|
E|-3------------------------------------------3-----|
Show more