• Song:

    Dont Stop Believing

  • Artist:

    Glee Cast

Hey, this is the intro for don't stop believing from Glee, enjoy! :)


e|----------------------------------------------------------------------------|
B|----------------------------------------------------------------------------|
G|----------------------------------------------------------------------------|
D|----------------------------------------------------------------------------|
A|-----------2-2-4-6-4--6--7-0---6--7-----------------------------------------|
E|-0--0-2-4-------------------------------------------------------------------|

e|------------------------------------------------------------------------------|
B|------------------------------------------------------------------------------|
G|------------------------------------------------------------------------------|
D|------------------------------------------------------------------------------|
A|-----------2-2-4-6--------------6--7------------------------------------------|
E|-0--0-2-4-----------4---4--7-5--------0---------------------------------------|
Show more