• Song:

    Faithfully

  • Artist:

    Glee Cast

Intro: C Am G F
e|-------------------------------------------------------------------------|
B|-------4--------------5-------4------------------4----(4)---4------------|
G|-------4-------6------4----------------4---6----------------4-------6----|
D|--4---------4-----4------4--------------------------------------6--------|
A|-------------------------------------------------------------------------|
E|--7---------------7----------------7-------------------4-----------------|

e|-------------------------------------------------------------------------|
B|------5-------4---------------4-------4-------2-------5-------4----------|
G|----------------------4---6-----------4---------------4---------------4--|
D|----------6-------6-----------------------4---------------4-------4------|
A|-------------------------------------------------------------------------|
E|--4---4-----------------------4---2---------------2---2------------------|

e|----------0-------0-----------0------------|
B|------------------------------0------------|
G|----------1-------1-------3----------------|
D|--4-----------2-------2-------2------------|
A|------2------------------------------------|
E|----------0--------------------------------|

Verse:
        CHighway (x32010@1)run
         Aminto (x02210@1)the midnight sun
FWheels (133211@1)go round and round
             CYou're (x32010@1)on my mind
         CRestless (x32010@1)hearts
       AmSleep (x02210@1)alone tonight
FSending (133211@1)all my love
          C (x32010@1) GAlong (320003@1)the wire

Chorus:
     FThey (133211@1)say that the road
      Am (x02210@1)                CAin't (x32010@1)no place to start a family
F (133211@1)            AmRight (x02210@1)down the line
                  CIt's (x32010@1)been you and me
    F (133211@1)            AmAnd (x02210@1)loving a music man
                       CAin't (x32010@1)always what it's supposed to be
G (320003@1)           Em (022000@1)     GOh, (320003@1)girl, you stand by me
        Dm (xx0231@1)      FI'm (133211@1)forever yours... Faithfully

Verse:
Circus life
Under the big top world
We all need the clowns
To make us smile
Through space and time
Always another show
Wondering where I am
Lost without you

Chorus: 
And being apart
Ain't easy on this love affair
Two strangers learn to fall in love again
I get the joy of rediscovering you
Oh, girl, you stand by me
I'm forever yours... Faithfully

Outro: C Am F G

Whooa, oh-oh-ooh
Whooa, oh-oh-ooh, oh
Whooa, oh-oh-oh, oh-whoooooa-oh
Faithfully
I'm still yours
I'm forever yours
Ever yours
Faithfully

Show more