• Song:

    Forever Young

  • Artist:

    Glee Cast

Capo on 3

Chords:

Asus2 (x02200@1)      Dsus2 (xx0230@1)       Bm(sus4) (x24432@1)          F#m7(sus4) (131141@2)---0----   ---0----   ----0------   -------0------|
---0----   ---3----   ----0------   -------0------|
---2----   ---2----   ----3------   -------2------|
---2----   ---0----   ----0------   -------4------|
---0----   ---0----   ----3------   --------------|
--------   --------   -----------   --------------|



Play around with this picking pattern:

Asus2 (x02200@1)                                Dsus2 (xx0230@1)                                  ...
-------0------------------------0----------------|
-----------0------------------3-----3------------|
-----2-------2--------------2---------2----------|
---2-----------2----------0-------------0--------|
-0----------------------0------------------------|
-------------------------------------------------|

I won't include the "sus" but play each of these as a suspended chord as an arpeggio

Intro:  Asus2 - Dsus2 - Asus2 - Asus2  (x2)

A (x02220@1)                        D (xx0232@1)            A (x02220@1)                           
May the good Lord be with you down every road you roam
        A (x02220@1)                        D (xx0232@1)                           AAnd (x02220@1)may sunshine and happiness surround you when you're far from home
            A (x02220@1)               D (xx0232@1)           A (x02220@1)                      
And may you grow to be proud, dignified and true
    A (x02220@1)               D (xx0232@1)                AAnd (x02220@1)do unto others as you'd have done to you
      Bm (x24432@1)          D (xx0232@1)             F#m (244222@1)               DBe (xx0232@1)courageous and be brave and in my heart you'll always stay
        A (x02220@1)            DForever (xx0232@1)young, forever young
        A (x02220@1)            DForever (xx0232@1)young, forever young

Start Strumming

A (x02220@1)                           D (xx0232@1)              AMay (x02220@1)good fortune be with you, may your guiding light be strong
        A (x02220@1)                       D (xx0232@1)             ABuild (x02220@1)a stairway to heaven with a prince or a vagabond
            Bm (x24432@1)         D (xx0232@1)             F#m (244222@1)            DAnd (xx0232@1)may you never love in vain, and in my heart you will remain
        A (x02220@1)            DForever (xx0232@1)young, forever young
        A (x02220@1)            DForever (xx0232@1)young, forever young
Bm (x24432@1)    D (xx0232@1)  AFor......ever (x02220@1)young
Bm (x24432@1)    D (xx0232@1)  AFor......ever (x02220@1)young
Show more