• Song:

    Hungry Like The Wolf

  • Artist:

    Glee Cast

Song; Hungry Like the Wolf/Rio
Artist; Blaine (Darren Criss) & Cooper (Matt Boomer)
Ep; Big Brother

Intro/Main Riff/Verse:
e|---0--0-------------------|
B|---0--0-------------------|
G|o---------2-1---2p1------o|
D|o-------------2------2---o|
A|--------------------------|
E|--------------------------|

*Repeat "Main Riff" in Verse and Pre-Chorus*

"Do-do-do-do-do..."          
e|---2-----------0--0--------------------|
B|---3-----------0--0--------------------|
G|---2------------------2-1---2p1--------|
D|---0----------------------2------2-----|
A|---------------------------------------|
E|---------------------------------------|

Chorus
F# (244322@1)         C# (x43121@1)         E (022100@1)          B (x2444x@1)     
Her name is Rio and she dances on the sand  ( Smell like I...)
F# (244322@1)            C# (x43121@1)            E (022100@1)             BJust (x2444x@1)like that river twisting though the dusty land  (Straddle the line...)  
F# (244322@1)          C# (x43121@1)               E (022100@1)             BAnd (x2444x@1)when she shines she really show you all she can   (Mouth is alive...)
F# (244322@1)    C# (x43121@1)       E (022100@1)           BRio (x2444x@1)oh Rio dance across the Rio Grand

Pre-Verse/Verse/
e|---0--0-------------------|
B|---0--0-------------------|
G|o---------2-1---2p1------o|
D|o-------------2------2---o|
A|--------------------------|
E|--------------------------|

"Do-do-do-do-do..."          
e|---2-----------0--0--------------------|
B|---3-----------0--0--------------------|
G|---2------------------2-1---2p1--------|
D|---0----------------------2------2-----|
A|---------------------------------------|
E|---------------------------------------|

Chorus
F# (244322@1)         C# (x43121@1)         E (022100@1)          B (x2444x@1)     
Her name is Rio and she dances on the sand  ( Smell like I...)
F# (244322@1)            C# (x43121@1)            E (022100@1)             BJust (x2444x@1)like that river twisting though the dusty land  (Straddle the line...)  
F# (244322@1)          C# (x43121@1)               E (022100@1)             BAnd (x2444x@1)when she shines she really show you all she can   (Mouth is alive...)
F# (244322@1)    C# (x43121@1)       E (022100@1)           BRio (x2444x@1)oh Rio dance across the Rio Grand



F (133211@1)                DAnd (xx0232@1)I'm hungry like...
 F (133211@1)                DAnd (xx0232@1)I'm hungry like...
 F (133211@1)                DAnd (xx0232@1)I'm hungry like...


Show more