• Song:

    Rumour Has It Someone Like You

  • Artist:

    Glee Cast

Tabbed By : empflyer

This is my first tab- I couldn't find that "Rumour Has It" line of this song so I did it 
myself, and then tabbed the entire song out for kicks. It's pretty easy. There's not a 
whole lot of bass in it, but this is just the basic line and you can play around with it.

from http://www.youtube.com/watch?v=qb7zjKkLCoQ

Listen to the song, it'll clarify things if you're not sure


0:45
Main "Rumour Has It" riff

G|--------------------|
D|--------------------|
A|--------------------|
E|-2-2/7-5------------|x3

The variation every 4th bar:
G|--------------------|
D|--------------------|
A|--------------------|
E|-2-2/7-5-7-8-7------|


repeat that until you get to the chorus of "Someone Like You"
1:00
G|------------------------------------------|
D|------------------------------------------|
A|---------7----------------5---------------|
E|-5----------------2-----------------------|


1:31 back to "Rumour Has It" riff (x2)

Then:
1:47 (eighth notes)
G|------------------------------------------------------------------|
D|------------------------------------------------------------------|
A|-------------------7-7-7-7-7-7-7-7----------------5-5-5-5-5-5-5-5-|
E|-5-5-5-5-5-5-5-5-5----------------2-2-2-2-2-2-2-2-----------------| x3

(technically there's no bass after this point but I like to play this)

Once the drums and everything stop
2:11
G|-----------------------------------------------|
D|-----------------------------------------------|
A|----------7-----------------5------------------|
E|-5-----------------2---------------------------|

End with:

G|--------|
D|--------|
A|--------|
E|-2~-----|




| /  slide up
| \  slide down
| h  hammer-on
| p  pull-off
| ~  vibrato
| +  harmonic
| x  Mute note
===============================================================================
Show more