sponsored links
Maybe it's a bit hard to understand, this is because I'm from Argentina and things are diferent here.
I've done my best!!.

Thing to help you understand:
U=up(rasgueo)
D=down(rasgueo)
|=leave a time between notes
1 to 6=number 1 is the finest one and 6 the gravest one(strings) 
(x2)=times to repeat, example 2.
INTRO
1 |---|-------------|------------|--------------------------|
2 |---|-------------|------------|--------------------------|
3 |---|-------------|------------|--------------------------|
4 |-2-|-7-7---4-4-4-|-4-4--7-7-7-|-7-7--9-9-9-9-9-9-9-9-9---|                   5 |-2-|-7-7---4-4-4-|-4-4--7-7-7-|-7-7--9-9-9-9-9-9-9-9-9-9-|
6 |-0-|-5-5---2-2-2-|-2-2--5-5-5-|-5-5--7-7-7-7-7-7-7-7-7-7-|

INTRO (singed 2┬░guitar)
6 |-0-0-0-0-0-0-0-0-2-2-2-2-2-2-2-2-5-5-5-5-5-5-5-5-7-7-7-7-7-7-7-7-| (x4)
(99 red ballons go flight)-(Slapping)

This part I haven't discovered it yet

The rest of the song is like this exept for the solo

4 |-2-------4---------7------9---------| The way to use the right hand(if you 
5 |-2 (x6)- 4 (x6)----7 (x6)-9 (x6)----| are right)is DDUUDU.
6 |-0-------2---------5------7---------|

SOLO 1 (1 and 2, both are the same)

1 |-2-4-0-4-2-0---4-2-0-0--0---0-2-2-4-0-4-2-0---4-2-0-0---7-4-2-4-|
2 |-------------2---------2--2-----------------2---------2---------|
3 |----------------------------------------------------------------|
4 |----------------------------------------------------------------|
5 |----------------------------------------------------------------|
6 |----------------------------------------------------------------|

SOLO 2

1 |-2-4-0-4-2-0---4-2-0-0--0---0-2-2-4-0-4-2-0---4-2-0-0---7-4-2-4-|
2 |-------------2---------2--2-----------------2---------2---------|
3 |----------------------------------------------------------------|
4 |----------------------------------------------------------------|
5 |----------------------------------------------------------------|
6 |----------------------------------------------------------------|

The end is missing but it's not hard to discover it by yourselves.
E-mail me if you need something. nacho_adrogue_1990@hotmail.com
Show more
sponsored links
sponsored links