• Song:

    Iris (city Of Angels Sound Track)

  • Artist:

    Goo Goo Dolls

sponsored links
* x - mute note after playing it
* g - ghost note


No Intro


Verse:

G|---------------|----------|
D|---------------|----------|
A|-5--7----------|-2--0-----|
E|-------3-------|-------3~-|


Chorus:

G|---------------|----------|
D|---------------|----------|
A|-2--0----------|-2--0-----|
E|-------3-------|-------3~-|


Post Chorus:

G|----------|----------|
D|----------|----------|
A|-2--4--5~-|-2--0-----|
E|----------|-------3~-|


Play after the first chorus only:
                     
G|------------------|------------|
D|------------------|------------|
A|-2---4-5----------|------------|
E|----------3-3-3-3-|-5--3--3g---|
                     only play once, fast.


Bridge:

G|---------------------------|------------|
D|---------------------------|------------|
A|-2222x--4444x--45----------|------------|
E|-------------------3-3-3-3-|-5--3--3g---|
                              


Solo:

G|--------------------------------------------------|
D|--------------------------------------------------|
A|--------------------------------------------------|
E|-333333333333333322222222222222223333333333333333-|

G|--------------------------------------------------|
D|--------------------------------------------------|
A|-2222222222222222---------------------------------|
E|-----------------33333333333333332222222222222222-|

G|------------------|-------------|
D|------------------|-------------|
A|-2222222222222222-|-2-4-5-7-99--|
E|------------------|-------------|

G|--------------------------------------------------|
D|--------------------------------------------------|
A|---------------------------------2222222222222222-|
E|-33333333333333332222222222222222-----------------|

G|----------------|
D|----------------|
A|-2-0-------5-2~-|
E|-----3-2-0------|


Song Structure:

Intro - No Bass
Verse - 4x
Chorus - 2x 
Post Chorus - 2x
Verse - 2x
Chorus - 2x
Post Chorus - 2x
Bridge - 4x
Solo - 1x
Post Solo - No Bass
Chorus - 2x
Chorus - 2x
Chorus - 2x 
Chorus - 1x 
Post Chorus - 2x

Im sure this version is correct, ive played it over and it sounds correct.
Show more
sponsored links
sponsored links