• Song:

    Boys and girls

  • Artist:

    Good Charlotte

  • Album:

    The Young and The Hopel...

MY SECOND TAB SOUND PRETTY RIGHT BUT NOT TO SURE ON THE TUNING OR THE BREAKDOWN IF 
ANY EDITS LETS ME KNOW


intro

G|-----------|
D|-----------|
A|-----------|
E|-4--6------| X4


Main riff / verse (0:06)
G|-------------------------|
D|-------------------------|
A|--------------6-4--------|
E|--4-0-4-6---4-----6------| x2

PRE CHORUS
G|-----------------------------------------|
D|-----------------------------------------|
A|-----------------------------------------|
E|--4444-6666-4444-6666-4444-6666-44444444-|

CHORUS
G|-------------------------------------|
D|-------------------------------------|
A|--66666666-55555555------------------|
E|--------------------4444444444444444-| X2

----------------------------------------------------------------------------

VERSE (2)
G|-------------------------|
D|-------------------------|
A|--------------6-4--------|
E|--4-0-4-6---4-----6------| X4

PRE CHORUS
G|---------------------------------------------------|
D|---------------------------------------------------|
A|---------------------------------------------------|
E|--4444-6666-4444-6666-4444-6666-4444-6666-44444444-|

CHORUS
G|-------------------------------------|
D|-------------------------------------|
A|--66666666-55555555------------------|
E|--------------------4444444444444444-| X4

BREAK DOWN

G|---------------|
D|---------------|
A|---6-----6-5---|
E|-4---6-------4-| X3

G|---------------------------|
D|---------------------------|
A|---6---6666-5555-4444-3333-|
E|-4---6---------------------|

----------------------------------------------------------------------------

CHORUS

G|-----------------------------------|
D|-----------------------------------|
A|-6-6-6-6--5-5-5-5------------------|
E|------------------4444444444444444-| X2

G|-------------------------------------|
D|-------------------------------------|
A|--66666666-55555555------------------|
E|--------------------4444444444444444-| X2


OUTRO

G|-----------|
D|-----------|
A|-----------|
E|-4--6------| X18 (THE SONG FADES OUT PLAY THIS YOU WANNA STOP OR IT FADES)
Show more