• Song:

    Broken Hearts Parade

  • Artist:

    Good Charlotte

  • Album:

    Good Morning Revival

sponsored links
This song is very easy
Intro
|---------------------------|
|---------------------------|
|---------------------------|
|------------12/3-----------|

|---------------------------|
|---------------------------|
|---------------------------| x2
|------------444-5445-55----|

|---------------------------|
|---------------------------|
|---------------------------|
|---44555-333-5555-4444-----|

|---------------------------|
|---------------------------|
|---------------------------|
|443-333-5555-444-335-8/3---|

Chorus
|---------------------------|
|---------------------------| x2
|-------222333--------------|
|-222333--------------------|

|---------------------------|
|---------------------------| 
|-------222--333-44345------|x2
|-----------------------8/3-|


|---------------------------|
|---------------------------|
|---------------------------|
|---44555-333-5555-4444-----|

Chorus
|---------------------------|
|---------------------------| x2
|-------222333--------------|
|-222333--------------------|

|---------------------------|
|---------------------------| 
|-------222--333-44345------|x2
|-----------------------8/3-|

|---------------------------|
|---------------------------| 
|---------------------------|
|-------4444-3333-55555-----|

|---------------------------|
|---------------------------| 
|---------------------------|
|-------4444-3333-55555-----|

Build
|---------------------------|
|---------------------------| 
|---------------------------|
|---55555-443223-8/33345----|

|---------------------------|
|---------------------------| 
|---------------------------|
|---55555-443223-8/3--------|

|---------------------------|
|---------------------------| 
|---------------------------|
|---55555-443223-8/3--------|

Drums....

|---------------------------|
|---------------------------|
|---------------------------|
|------------12/3-----------|


Chorus
|---------------------------|
|---------------------------| x2
|-------222333--------------|
|-222333--------------------|

|---------------------------|
|---------------------------| 
|-------222--333-44345------|x2
|--------3345555-234-------0|


I also wrote ┬┤Where Would We Be Now' bass tab
My e-mail is
yon-182@hotmail.com
Show more
sponsored links
sponsored links