• Song:

    Click

  • Artist:

    Good Charlotte

CLICK - Good Charlotte


 By:Aussie!

 Intro x4
G|---------------------------------------------------------------------------|
D|---------------------------------------------------------------------------|
A|5-5-5-5-5-5-5-5------------------------------------------------------------|
E|----------------5-5-5-5-5-5-5-5--3-3-3-3-3-3-3-3-3-3-3-3-3-3-3-3-----------|

  Verse 1 x4
G|---------------------------------------------------------------------------|
D|---------------------------------------------------------------------------|
A|5-5-5-5-5-5-5-5------------------------------------------------------------|
E|----------------5-5-5-5-5-5-5-5-7-7-7-7-7-7-7-7--3-3-3-3-3-3-3-3-----------|
  Chorus 
G|---------------------------------------------------------------------------|
D|---------------------------------------------------------------------------|
A|5-5-5-5-5-5-5-5------------------------------------------------------------|
E|----------------5-5-5-5-5-5-5-5-7-7-7-7-7-7-7-7-5-5-5-5-5-5-5-5------------|

G|---------------------------------------------------------------------------|
D|---------------------------------------------------------------------------|
A|5-5-5-5-5-5-5-5------------------------------------------------------------|
E|----------------5-5-5-5-5-5-5-5-3-3-3-3-3-3-3-3-3-3-3-3-3-3-3-3------------|

G|---------------------------------------------------------------------------|
D|---------------------------------------------------------------------------|
A|5-5-5-5-5-5-5-5------------------------------------------------------------|
E|----------------5-5-5-5-5-5-5-5-7-7-7-7-7-7-7-7-5-5-5-5-5-5-5-5------------|

G|---------------------------------------------------------------------------|
D|---------------------------------------------------------------------------|
A|5-5-5-5-5-5-5-5------------------------------------------------------------|
E|----------------5-5-5-5-5-5-5-5-3-3-3-3-3-3-3-3-3-3-3-3-3-3-3-3------------|
  Then After Chorus Play Intro 2x then verse then chorus then this
G|---------------------------------------------------------------------------|
D|---------------------------------------------------------------------------|
A|5~~~~~~~-------------------------------------------------------------------|
E|---------5~~~~~~~-3~~~~~~~----7~~~~~~~-5~~~~~~~-3~~~~~~~~~-----------------|
Sheeee saiid shee'd call....
 
x2
G|---------------------------------------------------------------------------|
D|---------------------------------------------------------------------------|
A|5-5-5-5-5-5-5-5------------------------------------------------------------|
E|----------------5-5-5-5-5-5-5-5-7-7-7-7-7-7-7-7-5-5-5-5-5-5-5-5------------|
SHeeeeeeeeee woooooontttttt

G|---------------------------------------------------------------------------|
D|---------------------------------------------------------------------------|
A|5-5------------------------------------------------------------------------|
E|-------------5-5-----------7-7------5-5------------------------------------|
You go out on friday night....

G|---------------------------------------------------------------------------|
D|---------------------------------------------------------------------------|
A|5-5------------------------------------------------------------------------|
E|----5-5----7-7-7-7-7-7-7-7-7-7-7-7-7-7-7-7---------------------------------|

G|---------------------------------------------------------------------------|
D|---------------------------------------------------------------------------|
A|5-5------------------------------------------------------------------------|
E|-------------5-5-----------7-7------5-5------------------------------------|

G|---------------------------------------------------------------------------|
D|---------------------------------------------------------------------------|
A|5-5------------------------------------------------------------------------|
E|----5-5----7-7-7-7-7-7-7-7-7-7-7-7-7-7-7-7---------------------------------|

Intro 4x then
G|---------------------------------------------------------------------------|
D|---------------------------------------------------------------------------|
A|5~~~~~---------------------------------------------------------------------|
E|--------5~~~~~~~~~-3~~~~~~~~~~~~~------------------------------------------|

====
Show more