• Song:

    Dance Floor Anthem

  • Artist:

    Good Charlotte

Good Charlotte - Dance Floor Anthem

Tabbed by Supermild


Intro - Start with Rhythm Guitar

G-----------------------------------------------------------------| 
D-----------------------------------------------------------------|
A-2-2-2-2-2-2-2-2-2-2-2-2-2-2-2-2-6-6-6-6-6-6-6-6-----------------|
E-----------------------------------------------------------------| 
B-------------------------------------------------4-4-4-4-4-4-4-4-|

G-------------------------------------------------| 
D-------------------------------------------------|
A-2-2-2-2-2-2-2-2-2-2-2-2-2-2-2-2-4-4-4-4-4-4-4-4-|
E-------------------------------------------------| 
B-------------------------------------------------|


VERSE 1 (Listen for timing)

G-----------------|-----------------|-----------------|-----------------|
D-----------------|-----------------|-----------------|-----------------|
A-6---------------|-4--------------4|-9---------------|-----------------|
E-----------------|-----------------|-----------------|-7-------9-------|
B---------4-------|-----------------|-----------------|-----------------|


G-----------------|-----------------|-----------------|-----------------|
D-----------------|-----------------|-----------------|-----------------|
A-6-6-6-6-6-6-6-6-|-4-4-4-4-4-4-4-4-|-9-9-9-9-9-9-9-9-|-7-7-7-77-9------|
E-----------------|-----------------|-----------------|-----------------|
B-----------------|-----------------|-----------------|-----------------|  

Chorus

G-----------------------------------------------------------------| 
D-----------------------------------------------------------------|
A-2-2-2-2-2-2-2-2-2-2-2-2-2-2-2-2-6-6-6-6-6-6-6-6-----------------|
E-----------------------------------------------------------------| 
B-------------------------------------------------4-4-4-4-4-4-4-4-| X3

G-----------------------------------------------------------------| 
D-----------------------------------------------------------------|
A-2-2-2-2-2-2-2-2-2-2-2-2-2-2-2-2-4-4-4-4-4-4-4-4-4-4-4-4-4-4-4-4-|
E-----------------------------------------------------------------| 
B-----------------------------------------------------------------|

VERSE 2 (Listen for timing)

G-----------------|-----------------|-----------------|-----------------|
D-----------------|-----------------|-----------------|-----------------|
A-6-6-6-6-6-6-6-6-|-4-4-4-4-4-4-4-4-|-9-9-9-9-9-9-9-9-|-7-7-7-7-9-9-9-9-|
E-----------------|-----------------|-----------------|-----------------|
B-----------------|-----------------|-----------------|-----------------| x2

Chorus

G-----------------------------------------------------------------| 
D-----------------------------------------------------------------|
A-2-2-2-2-2-2-2-2-2-2-2-2-2-2-2-2-6-6-6-6-6-6-6-6-----------------|
E-----------------------------------------------------------------| 
B-------------------------------------------------4-4-4-4-4-4-4-4-| X3

G-----------------------------------------------------------------| 
D-----------------------------------------------------------------|
A-2-2-2-2-2-2-2-2-2-2-2-2-2-2-2-2-4-4-4-4-4-4-4-4-4-4-4-4-4-4-4-4-|
E-----------------------------------------------------------------| 
B-----------------------------------------------------------------|

Interlude

G-----------------|-----------------|
D-----------------|-----------------|
A-4-4-4-4-4-4-4-4-|-----------------|
E-----------------|-4-4-4-4-6-6-6-6-|
B-----------------|-----------------| x2

G-----------------|-----------------|
D-----------------|-----------------|
A-----------------|-----------------|
E-----------------|-4-4-4-4-6-6-6-6-|
B-2-2-2-2-2-2-2-2-|-----------------| x2

Verse 3

G-----------------|-----------------|-----------------|-----------------|
D-----------------|-----------------|-----------------|-----------------|
A-6---------------|-4--------------4|-9---------------|-----------------|
E-----------------|-----------------|-----------------|-7-------9-------|
B---------4-------|-----------------|-----------------|-----------------|


G-----------------|-----------------|-----------------|-----------------|
D-----------------|-----------------|-----------------|-----------------|
A-----------------|-4---------------|-----------------|-----------------|
E-----------------|-----------------|-0---------------|-----------------|
B-4---------------|-----------------|-----------------|-0--------2------| 

Chorus

G-----------------------------------------------------------------| 
D-----------------------------------------------------------------|
A-2-2-2-2-2-2-2-2-2-2-2-2-2-2-2-2-6-6-6-6-6-6-6-6-----------------|
E-----------------------------------------------------------------| 
B-------------------------------------------------4-4-4-4-4-4-4-4-| X3

G-----------------------------------------------------------------| 
D-----------------------------------------------------------------|
A-2-2-2-2-2-2-2-2-2-2-2-2-2-2-2-2-4-4-4-4-4-4-4-4-4-4-4-4-4-4-4-4-|
E-----------------------------------------------------------------| 
B-----------------------------------------------------------------|

Outro

G-----------------|-----------------|
D-----------------|-----------------|
A-4-4-4-4-4-4-4-4-|-----------------|
E-----------------|-4-4-4-4-6-6-6-6-|
B-----------------|-----------------|

G-----------------|-----------------|
D-----------------|-----------------|
A-----------------|-----------------|
E-----------------|-4-4-4-4-6-6-6-6-|
B-2-2-2-2-2-2-2-2-|-----------------| x3

G-----------------|
D-----------------|
A-----------------|
E-----------------|
B-4---------------|
Show more