• Song:

    Like Its Her Birthday

  • Artist:

    Good Charlotte

Standard tuning (E,A,D,G)
this is a great song and pretty simple on the bass... im suprised there where no tabs 
for it...

rest until lyrics come in

intro/verse goes like this:
G|-------------------------------------------------------------------|
D|-------------------------------------------------------------------|  x3
A|-------------------------------------------------------------------|
E|-4-4-4-4-4-4-4-4--2-2-2-2-2-2-2-2--0-0-0-0-0-0-0-0-0-0-0-0-0-0-0-0-|

then the chorus comes in like this:
G|--------------------------------------------------------------------|
D|--------------------------------------------------------------------|  x4
A|------------------2-2-2-2-2-2-2-2-----------------------------------|
E|-0-0-0-0-0-0-0-0-------------------2-2-2-2-2-2-2-2--0-0-0-0-0-0-0-0-|

then the same again:
G|-------------------------------------------------------------------|
D|-------------------------------------------------------------------|  x3
A|-------------------------------------------------------------------|
E|-4-4-4-4-4-4-4-4--2-2-2-2-2-2-2-2--0-0-0-0-0-0-0-0-0-0-0-0-0-0-0-0-|

chorus once again:
G|--------------------------------------------------------------------|
D|--------------------------------------------------------------------|  x4
A|------------------2-2-2-2-2-2-2-2-----------------------------------|
E|-0-0-0-0-0-0-0-0-------------------2-2-2-2-2-2-2-2--0-0-0-0-0-0-0-0-|

pre-solo:
then the chorus comes in like this:
G|--------------------------------------------------------------------|
D|--------------------------------------------------------------------|  x3
A|--------------------------------------------------------------------|
E|-2-2-2--4-4-4-4--7-7-7-7-7-7-7-7------------------------------------|

then on the last line:
G|--------------------------------------------------------------------|
D|--------------------------------------------------------------------|  x1
A|--------------------------------------------------------------------|
E|-2-2-2--4-4-4-4--7-7------------------------------------------------|

and finally the chorus during the all the way to the end:
G|--------------------------------------------------------------------|
D|--------------------------------------------------------------------|  x8
A|------------------2-2-2-2-2-2-2-2-----------------------------------|
E|-0-0-0-0-0-0-0-0-------------------2-2-2-2-2-2-2-2--0-0-0-0-0-0-0-0-|


first time i've tabbed a song :) i'd like your feedback :) if you could, please e-mail 
me feedback at [liam.l.fc@hotmail.co.uk] worst email address ever but who cares :3

thanks alot :)<3
Show more