Gotthard - I Wonder

Standard Tuning - BEADG


Intro

G|-------------------------------|
D|-------------------------------|
A|-------------------------------|
E|0-0-0-0-0-0-0-0-8-8-8-8-8-8-8-8| 
B|-------------------------------| x4 (note: these 8s on the A sound better played as 1s on the B)


Verse x2

G|-------------------------------|                   
D|-------------------------------|                       
A|-------------------------------|
E|0-0-0-0-0-0-0-0-8-8-8-8-8-8-8-8|
B|-------------------------------| x2

G|-----------------------------------------------|
D|-----------------------------------------------|
A|-----------------------------------------------|
E|3-3-3-3-3-3-3-3-2-2-2-2-2-2-2-2-8-8-8-8-8-8-8-8|
B|-----------------------------------------------|


Chorus

G|-----------------------------------------------|
D|-----------------------------------------------|
A|-----------------------------------------------|
E|3-3-3-3-3-3-3-3-2-2-2-2-2-2-2-2----------------|
B|--------------------------------1-1-1-1-1-1-1-1| x2

 
Verse x2


Chorus x2


Break

G|-------------------------------|                   
D|-------------------------------|                       
A|-------------------------------|
E|0-0-0-0-0-0-0-0-8-8-8-8-8-8-8-8|
B|-------------------------------| x2


Solo

G|-----------------------------------------------|
D|-----------------------------------------------|
A|-----------------------------------------------|
E|3-3-3-3-3-3-3-3-2-2-2-2-2-2-2-2----------------|
B|--------------------------------1-1-1-1-1-1-1-1|


Chorus x2


Fade out repeating the verse and fill as necessary



Class tune and easy to play! Enjoy!
Show more